liudnas

Chords

01234567891011121314151617181920212223
E
B
G
D
A
E
B
0 1 2 3 4 5 6 7 8 9 10 11 12 13 14 15 16 17 18 19 20 21 22 23
(/) Slide Up  (\) Slide Down  (h) Hammer On  (p) Pull Off  (b) Bend (r) Release (v) Vibrato

Stave 1:

E|-----------------------------------------------------
B|--3--3--3-----3--3--3-----3--3--3-----3--3--3--------
G|-----------------------------------------------------
D|-----------------------------------------------------
A|-----------------------------------------------------
E|--2-----------2-----------2-----------2-----------2--

Stave 2:

E|--------------------------------------------------------------------------------------
B|--------------------------------------------------3--3--3--2--2--2--3--3--3--2--2--2--
G|--3--3--3-----3--3--3-----3--3--3-----3--3--3-----3--3--3--3--3--3--3--3--3--3--3--3--
D|--------------------------------------------------------------------------------------
A|--------------------------------------------------------------------------------------
E|--2-----------2-----------2-----------2-----------2--------2--------2--------2--------

							http://www.guitartabcreator.com
Instruments
{"title":"","strings":[[[".",".",".","_",".",".",".","_",".",".",".","_",".",".",".","_","."],[3,3,3,"_",3,3,3,"_",3,3,3,"_",3,3,3,"_","."],[".",".",".","_",".",".",".","_",".",".",".","_",".",".",".","_","."],[".",".",".","_",".",".",".","_",".",".",".","_",".",".",".","_","."],[".",".",".","_",".",".",".","_",".",".",".","_",".",".",".","_","."],[2,".",".","_",2,".",".","_",2,".",".","_",2,".",".","_",2]],[[".",".",".","_",".",".",".","_",".",".",".","_",".",".",".","_",".",".",".",".",".",".",".",".",".",".",".","."],[".",".",".","_",".",".",".","_",".",".",".","_",".",".",".","_",3,3,3,2,2,2,3,3,3,2,2,2],[3,3,3,"_",3,3,3,"_",3,3,3,"_",3,3,3,"_",3,3,3,3,3,3,3,3,3,3,3,3],[".",".",".","_",".",".",".","_",".",".",".","_",".",".",".","_",".",".",".",".",".",".",".",".",".",".",".","."],[".",".",".","_",".",".",".","_",".",".",".","_",".",".",".","_",".",".",".",".",".",".",".",".",".",".",".","."],[2,".",".","_",2,".",".","_",2,".",".","_",2,".",".","_",2,".",".",2,".",".",2,".",".",2,".","."]]],"numberofstrings":6,"notes":["E","B","G","D","A","E","B"],"capo":0,"stringnotes":["E4","B3","G3","D3","A2","E2"],"comments":["Stave 1:","Stave 2:"],"timing":[["W","W","W","W","W","W","W","W","W","W","W",null,"W","W","W",null,"W"],["W","W","W",null,"W","W","W",null,"W","W","W",null,"W","W","W",null,"W","W","W","W","W","W","W","W","W","W","W","W"]],"timingvisible":false,"tabcounter":28,"stave":1,"totalstaves":2,"instrument":"6guitar","selectedtuning":"6_standard","version":"13"}

Member for

2 years 7 months
Submitted by klemisrem on Tue, 2018-06-05 09:45