kazkasradiohead

Chords

01234567891011121314151617181920212223
E
B
G
D
A
E
B
0 1 2 3 4 5 6 7 8 9 10 11 12 13 14 15 16 17 18 19 20 21 22 23
(/) Slide Up  (\) Slide Down  (h) Hammer On  (p) Pull Off  (b) Bend (r) Release (v) Vibrato

Stave 1:

E|-----------------------------------------
B|--------------------------------------7--
G|------14------11------13------11------7--
D|--12------12------12------12------12--8--
A|-----------------------------------------
E|-----------------------------------------

Stave 2:

E|----------------
B|--12--12p9--12--
G|--9-------------
D|--11------------
A|--9-------------
E|----------------

							http://www.guitartabcreator.com
Instruments
{"title":"","strings":[[[".",".",".",".",".",".",".",".",".","."],[".",".",".",".",".",".",".",".",".",7],[".",14,".",11,".",13,".",11,".",7],[12,".",12,".",12,".",12,".",12,8],[".",".",".",".",".",".",".",".",".","."],[".",".",".",".",".",".",".",".",".","."]],[[".",".",".",".","."],[12,12,"p",9,12],[9,".",".",".","."],[11,".",".",".","."],[9,".",".",".","."],[".",".",".",".","."]]],"numberofstrings":6,"notes":["E","B","G","D","A","E","B"],"capo":0,"stringnotes":["E4","B3","G3","D3","A2","E2"],"comments":["Stave 1:","Stave 2:"],"timing":[["W","W","W","W","W","W","W","W","W","W"],["W","W","W","W","W","W"]],"timingvisible":false,"tabcounter":5,"stave":1,"totalstaves":2,"instrument":"6guitar","selectedtuning":"6_standard","version":"13"}

Member for

2 years 7 months
Submitted by klemisrem on Sun, 2018-03-04 02:43