Sound will begin in 5 seconds

jeff beck - sleepwalk

Chords
01234567891011121314151617181920212223
E
B
G
D
A
E
B
0 1 2 3 4 5 6 7 8 9 10 11 12 13 14 15 16 17 18 19 20 21 22 23
(/) Slide Up  (\) Slide Down  (h) Hammer On  (p) Pull Off  (b) Bend (r) Release (v) Vibrato

Stave 1:

E|-----------------------------------------------------------------------
B|-----------------------------------------------------------------------
G|--------8-----8-----8-----8-----8-----------5-----5-----5-----5-----5--
D|-----9-----9-----9-----9-----9-----------7-----7-----7-----7-----7-----
A|-----------------------------------------------------------------------
E|--8-----------------------------------5--------------------------------

Stave 2:

E|----------------------------------------------------------------------------------------------------
B|--------------------------------------------8/10/17\12-----13--13-----13--13--12--------11b13v--8v--
G|--------1-----1-----1-----1-----1-----4------------------------12-----12--12--12--------------------
D|-----3-----3-----3-----3-----3--------5-------------------------------------------------------------
A|----------------------------------------------------------------------------------------------------
E|--1-----------------------------------3-------------------------------------------------------------

Stave 3:

E|--------------------------------------------------------------------------------------------3--------
B|--6--8--9---8--------11b13v--8--8v--6--8--9---8----------------8-------------1--1--1--1--5--5--5--5--
G|--7--9--10--9--10p9-----------------7--9--10--9--10--9--9v--9-----9----------1--1--1--1--4--4--4--5--
D|---------------------------------------------------------------------10--7v--3--3--3--3--5-----5--5--
A|-----------------------------------------------------------------------------------------------------
E|-----------------------------------------------------------------------------------------------------

Stave 4:

E|----------------------------------------------------------------------------------------------
B|--8/10/17\12v--13--13--13h15p13\12-----11p13r11--8v--6--6--8--9---8---------11p13v--8--8--8v--
G|---------------13--13-----------12-------------------7--7--9--10--9--10--9--------------------
D|---------------15---------------12------------------------------------------------------------
A|----------------------------------------------------------------------------------------------
E|----------------------------------------------------------------------------------------------

Stave 5:

E|-------------------------------------------------------------------------------------------
B|--6--8--9---8-------------8----------------1--1--1--1--1--5--5--5--5-----6-----6-----6--5--
G|--7--9--10--9--10--9v--9-----9-------------1--1--1--1--1--4--4--4--5-----5-----5-----5--5--
D|--------------------------------10--7v-----3--3--3--3--3--5--5--5--5-----7-----7-----7--5--
A|-------------------------------------------------------------------------------------------
E|-------------------------------------------------------------------------------------------

Stave 6:

E|-----------10b12--10b12v-----10r8------10b12r10--------------------------------------10b12r10r8------
B|--10--10v--------------------------9v------------8--10--10v-----8-----10-----10--10--------------9v--
G|-------------------------------------------------9--9--------9---------------------------------------
D|-----------------------------------------------------------------------------------------------------
A|-----------------------------------------------------------------------------------------------------
E|-----------------------------------------------------------------------------------------------------

Stave 7:

E|--10b12r10--8--3--3--3--3--3--3--6--6--6--6--6--6--3--------20v--14b15r14b15--------------------
B|---------------3--3--3--3--3--3--6--6--6--6--6--6--3--------------------------18--20--20b21r20--
G|---------------4--4--4--4--4--4--7--7--7--7--7--7--4--------------------------------------------
D|------------------------------------------------------------------------------------------------
A|------------------------------------------------------------------------------------------------
E|------------------------------------------------------------------------------------------------

Stave 8:

E|---------20v--14b15r14b15------------------------------------------------------------------
B|--18p17--------------------18--18--20b21r20b21r20--20---------20---------20----------------
G|-------------------------------------------------------20b22------20b22------22r20r17--19--
D|-------------------------------------------------------------------------------------------
A|-------------------------------------------------------------------------------------------
E|-------------------------------------------------------------------------------------------

Stave 9:

E|---------------------------------------------------15/17/23\19v--
B|--13--13--13--13--15--17v--------8/10/17\12----------------------
G|--13--13--13--13--16---------------------------------------------
D|--15--15--15--15--17---------------------------------------------
A|-----------------------------------------------------------------
E|-----------------------------------------------------------------

http://www.guitartabcreator.com
Guitar Tab Creator is intended to store guitar tab created through the tool. It currently does not support in-line text editing. Any text you place in here will be lost. If you need to comment on your tab, please use the "Tab Notes" section located below.