jazzine

Chords

01234567891011121314151617181920212223
E
B
G
D
A
E
B
0 1 2 3 4 5 6 7 8 9 10 11 12 13 14 15 16 17 18 19 20 21 22 23
(/) Slide Up  (\) Slide Down  (h) Hammer On  (p) Pull Off  (b) Bend (r) Release (v) Vibrato

Stave 1:

E|--------------10--10-----------------
B|--8--8--8--8--11--11--3--3--8--8--8--
G|--8--8--8--8--10--10--3--3--8--8--8--
D|--8--8--8--8--12--12--3--3--8--8--8--
A|--6--6--------10--10--1--1--6--6--6--
E|--------8--8-------------------------

Stave 2:

E|--3--3--3--3--13--13--12--12--
B|--4--4--3--3--15--15--13--13--
G|--5--5--4--4--14--14--12--12--
D|--5--5--5--5--15--15--14--14--
A|--3--3--5--5--13--13--12--12--
E|--------3--3------------------

							http://www.guitartabcreator.com
Instruments
{"title":"","strings":[[[".",".",".",".",10,10,".",".",".",".","."],[8,8,8,8,11,11,3,3,8,8,8],[8,8,8,8,10,10,3,3,8,8,8],[8,8,8,8,12,12,3,3,8,8,8],[6,6,".",".",10,10,1,1,6,6,6],[".",".",8,8,".",".",".",".",".",".","."]],[[3,3,3,3,13,13,12,12],[4,4,3,3,15,15,13,13],[5,5,4,4,14,14,12,12],[5,5,5,5,15,15,14,14],[3,3,5,5,13,13,12,12],[".",".",3,3,".",".",".","."]]],"numberofstrings":6,"notes":["E","B","G","D","A","E","B"],"capo":0,"stringnotes":["E4","B3","G3","D3","A2","E2"],"comments":["Stave 1:","Stave 2:"],"timing":[["W","W","W","W","W","W","W","W","W","W","W"],["W","W","W","W","W","W","W","W"]],"timingvisible":false,"tabcounter":7,"stave":1,"totalstaves":2,"instrument":"6guitar","selectedtuning":"6_standard","version":"13"}

Member for

2 years 7 months
Submitted by klemisrem on Sun, 2018-03-11 13:29