Sound will begin in 5 seconds

gazelle

Chords
01234567891011121314151617181920212223
E
B
G
D
A
E
B
0 1 2 3 4 5 6 7 8 9 10 11 12 13 14 15 16 17 18 19 20 21 22 23
(/) Slide Up  (\) Slide Down  (h) Hammer On  (p) Pull Off  (b) Bend (r) Release (v) Vibrato

Stave 1:

E|--7--12-----7--10--12-----------------
B|--8--10--8--7----------15b17------15--
G|--7--10--9--7-----------------12------
D|--9--10--9--7-------------------------
A|--7---------9-------------------------
E|---------8--7-------------------------

Stave 2:

E|--------------------------
B|--------------------------
G|--7/9--7--5--5/7--5--3/5--
D|--------------------------
A|--------------------------
E|--------------------------

http://www.guitartabcreator.com
Guitar Tab Creator is intended to store guitar tab created through the tool. It currently does not support in-line text editing. Any text you place in here will be lost. If you need to comment on your tab, please use the "Tab Notes" section located below.