christmas song

Chords

01234567891011121314151617181920212223
E
B
G
D
A
E
B
0 1 2 3 4 5 6 7 8 9 10 11 12 13 14 15 16 17 18 19 20 21 22 23
(/) Slide Up  (\) Slide Down  (h) Hammer On  (p) Pull Off  (b) Bend (r) Release (v) Vibrato

Stave 1:

E|-------------------------------------------------------
B|-------------------------------------------------------
G|-------------------------------------------------------
D|-------------------------------------------------------
A|--7/8--6--5--6-----/8--6--5-----/15--14v-----15\10-----
E|-------------------------------------------------------

Stave 2:

E|-------------------------------------------------------
B|-------------------------------------------------------
G|-------------------------------------------------------
D|-------------------------------------------------------
A|--7/8--6--5--6-----/8--6--5-----/15--14v-----15\10-----
E|-------------------------------------------------------

Stave 3:

E|---------------------------------13v---------------
B|--------------------------12/15-------15/17v--r15--
G|------10-------------------------------------------
D|--12------12v--10--10------------------------------
A|---------------------------------------------------
E|---------------------------------------------------

Stave 4:

E|-----------------------------------------------------------------|--|--
B|-----------------------------------------------------------------|--|--
G|-----------------------------------------------------------------|--|--
D|-----------------------------------------------------------------|--|--
A|--7/8--6--5--6--3-----/8--6--5--6--5v-----6/8--6v--8/10--12v--v--|--|--
E|-----------------------------------------------------------------|--|--

							http://www.guitartabcreator.com
Instruments
{"title":"christmas song","strings":[[[".",".",".",".",".",".","_",".",".",".",".","_",".",".",".",".","_",".",".",".","_"],[".",".",".",".",".",".","_",".",".",".",".","_",".",".",".",".","_",".",".",".","_"],[".",".",".",".",".",".","_",".",".",".",".","_",".",".",".",".","_",".",".",".","_"],[".",".",".",".",".",".","_",".",".",".",".","_",".",".",".",".","_",".",".",".","_"],[7,"/",8,6,5,6,"_","/",8,6,5,"_","/",15,14,"v","_",15,"\\",10,"_"],[".",".",".",".",".",".","_",".",".",".",".","_",".",".",".",".","_",".",".",".","_"]],[[".",".",".",".",".",".","_",".",".",".",".","_",".",".",".",".","_",".",".",".","_"],[".",".",".",".",".",".","_",".",".",".",".","_",".",".",".",".","_",".",".",".","_"],[".",".",".",".",".",".","_",".",".",".",".","_",".",".",".",".","_",".",".",".","_"],[".",".",".",".",".",".","_",".",".",".",".","_",".",".",".",".","_",".",".",".","_"],[7,"/",8,6,5,6,"_","/",8,6,5,"_","/",15,14,"v","_",15,"\\",10,"_"],[".",".",".",".",".",".","_",".",".",".",".","_",".",".",".",".","_",".",".",".","_"]],[[".",".",".",".",".",".","_",".",".",".",13,"v",".",".",".",".",".","."],[".",".",".",".",".",".","_",12,"/",15,".",".",15,"/",17,"v","r",15],[".",10,".",".",".",".","_",".",".",".",".",".",".",".",".",".",".","."],[12,".",12,"v",10,10,"_",".",".",".",".",".",".",".",".",".",".","."],[".",".",".",".",".",".","_",".",".",".",".",".",".",".",".",".",".","."],[".",".",".",".",".",".","_",".",".",".",".",".",".",".",".",".",".","."]],[[".",".",".",".",".",".",".","_",".",".",".",".",".",".",".","_",".",".",".",".",".",".",".",".",".",".",".","|","|"],[".",".",".",".",".",".",".","_",".",".",".",".",".",".",".","_",".",".",".",".",".",".",".",".",".",".",".","|","|"],[".",".",".",".",".",".",".","_",".",".",".",".",".",".",".","_",".",".",".",".",".",".",".",".",".",".",".","|","|"],[".",".",".",".",".",".",".","_",".",".",".",".",".",".",".","_",".",".",".",".",".",".",".",".",".",".",".","|","|"],[7,"/",8,6,5,6,3,"_","/",8,6,5,6,5,"v","_",6,"/",8,6,"v",8,"/",10,12,"v","v","|","|"],[".",".",".",".",".",".",".","_",".",".",".",".",".",".",".","_",".",".",".",".",".",".",".",".",".",".",".","|","|"]]],"numberofstrings":6,"notes":["E","B","G","D","A","E","B"],"capo":0,"stringnotes":["E4","B3","G3","D3","A2","E2"],"comments":["Stave 1:","Stave 2:","Stave 3:","Stave 4:"],"timing":[["W",null,"W","W","W","W",null,null,"W","W","W",null,null,"W","W",null,null,"W",null,"W",null,"W",null,"W","W","W","W",null,null,"W","W","W",null,null,"W","W"],["W",null,"W","W","W","W",null,null,"W","W","W",null,null,"W","W",null,"W","W",null,"W"],["W","W","W",null,"W","W",null,"W",null,"W","W",null,"W",null,"W",null,null,"W"],["W",null,"W","W","W","W","W",null,null,"W","W","W","W","W",null,null,"W",null,"W","W",null,"W",null,"W","W"]],"timingvisible":false,"tabcounter":29,"stave":3,"totalstaves":4,"instrument":"6guitar","selectedtuning":"6_standard","version":"13"}

Member for

2 years 7 months
Submitted by klemisrem on Sat, 2018-08-04 12:00