Sound will begin in 5 seconds

C/B

01234567891011121314151617181920212223
E
B
G
D
A
E
B
0 1 2 3 4 5 6 7 8 9 10 11 12 13 14 15 16 17 18 19 20 21 22 23
(/) Slide Up  (\) Slide Down  (h) Hammer On  (p) Pull Off  (b) Bend (r) Release (v) Vibrato

Stave 1:

E|--------------3--------------------2--------------------3--------------------2-----------
B|--------5-----------5--------4-----------4--------5-----------5--------4-----------4-----
G|-----------------------------------------------------------------------------------------
D|-----------------------------------------------------------------------------------------
A|-----3-----3-----3-----3--2-----2-----2-----2--3-----3-----3-----3--2-----2-----2-----2--
E|-----------------------------------------------------------------------------------------

Stave 2:

E|-----------3--------------------2--------------------3--------------------2-----------
B|-----5-----------5--------4-----------4--------5-----------5--------4-----------4-----
G|--------------------------------------------------------------------------------------
D|--------------------------------------------------------------------------------------
A|--3-----3-----3-----3--2-----2-----2-----2--3-----3-----3-----3--2-----2-----2-----2--
E|--------------------------------------------------------------------------------------

Stave 3:

E|-----------7--------------------6--------------------7--------------------6-----------
B|-----9-----------9--------8-----------8--------9-----------9--------8-----------8-----
G|--------------------------------------------------------------------------------------
D|--------------------------------------------------------------------------------------
A|--7-----7-----7-----7--6-----6-----6-----6--7-----7-----7-----7--6-----6-----6-----6--
E|--------------------------------------------------------------------------------------

Stave 4:

E|-----------3--------------------2--------------------3--------------------2-----------
B|-----5-----------5--------4-----------4--------5-----------5--------4-----------4-----
G|--------------------------------------------------------------------------------------
D|--------------------------------------------------------------------------------------
A|--3-----3-----3-----3--2-----2-----2-----2--3-----3-----3-----3--2-----2-----2-----2--
E|--------------------------------------------------------------------------------------

Stave 5:

E|--------------
B|------14------
G|--------------
D|--------------
A|--12------12--
E|--------------

http://www.guitartabcreator.com
Guitar Tab Creator is intended to store guitar tab created through the tool. It currently does not support in-line text editing. Any text you place in here will be lost. If you need to comment on your tab, please use the "Tab Notes" section located below.