Sound will begin in 5 seconds

bb king slow

01234567891011121314151617181920212223
E
B
G
D
A
E
B
0 1 2 3 4 5 6 7 8 9 10 11 12 13 14 15 16 17 18 19 20 21 22 23
(/) Slide Up  (\) Slide Down  (h) Hammer On  (p) Pull Off  (b) Bend (r) Release (v) Vibrato

Stave 1:

E|--------------------------------------5--7--8--
B|-----------------------------5--6--8-----------
G|--------------------4--5--7--------------------
D|--------------5--7-----------------------------
A|-----5--7--8-----------------------------------
E|--8--------------------------------------------

Stave 2:

E|--------------------------------------
B|--8--5--5--------8-----5--5--5-----8--
G|-----------7--------------------7-----
D|--------------------------------------
A|--------------------------------------
E|--------------------------------------

Stave 3:

E|-----6b8--6b8--------11--9----------------9--11------------------9--11--------
B|--4---------------9---------11--13r11------------9--9-----11b13---------9--9--
G|------------------------------------------------------------------------------
D|------------------------------------------------------------------------------
A|------------------------------------------------------------------------------
E|------------------------------------------------------------------------------

Stave 4:

E|----------------11-----13b15--15r13--15-----------------------------11------------
B|------9--11/13------------------------------11b13p11------9-----10------11b13--9--
G|--10--------------------------------------------------10--------------------------
D|----------------------------------------------------------------------------------
A|----------------------------------------------------------------------------------
E|----------------------------------------------------------------------------------

Stave 5:

E|--9b10--9-----------------9b10--9----------------------------------9--11----------
B|-----------11--11b13v--------------11b13--11--9--11b13v-----11b13---------9v--9v--
G|----------------------------------------------------------------------------------
D|----------------------------------------------------------------------------------
A|----------------------------------------------------------------------------------
E|----------------------------------------------------------------------------------

Stave 6:

E|--9--11-------------------------------------------11v--11--13/16--16-----------------------------
B|---------11b13--11b12r9------9v---------9--11/13----------------------11b13r11--9------9--11-----
G|-------------------------10---------10---------------------------------------------10---------10\
D|-------------------------------------------------------------------------------------------------
A|-------------------------------------------------------------------------------------------------
E|-------------------------------------------------------------------------------------------------

Stave 7:

E|-----------------------------11------
B|--11b13r11--9------9--11--9------9v--
G|---------------10--------------------
D|-------------------------------------
A|-------------------------------------
E|-------------------------------------

Stave 8:

E|-----------11--9v------------11b12--11--9---------11p13--11v-----10b12--------------------
B|--------9-------------9v-------------------9v---------------------------9v------11b13-----
G|--8/10----------------------------------------------------------------------10------------
D|------------------------------------------------------------------------------------------
A|------------------------------------------------------------------------------------------
E|------------------------------------------------------------------------------------------

Stave 9:

E|-------------------------------11b13--------------------------------------------------
B|--13r11--11------9v-------------------11b12--9-------------------------------11--11v--
G|-------------10------10-------------------------10/4--------10--10--9--8--7-----------
D|--------------------------------------------------------------------------------------
A|--------------------------------------------------------------------------------------
E|--------------------------------------------------------------------------------------

Stave 10:

E|---------11--------------------9b10----------------
B|--11b13------11b12--11v--------------9--11b13--11--
G|---------------------------------------------------
D|---------------------------------------------------
A|---------------------------------------------------
E|---------------------------------------------------

http://www.guitartabcreator.com
Guitar Tab Creator is intended to store guitar tab created through the tool. It currently does not support in-line text editing. Any text you place in here will be lost. If you need to comment on your tab, please use the "Tab Notes" section located below.