Sound will begin in 5 seconds

Californication tab Kieran kIng solo

01234567891011121314151617181920212223
E
B
G
D
A
E
B
0 1 2 3 4 5 6 7 8 9 10 11 12 13 14 15 16 17 18 19 20 21 22 23
(/) Slide Up  (\) Slide Down  (h) Hammer On  (p) Pull Off  (b) Bend (r) Release (v) Vibrato

Stave 1: VERSE

E|---------------------------------------------------------
B|-----0-1-------------0-1-------------5-------------------
G|-------------0-2-------------0-2-------------4-------0-2-
D|---2---------------2---------------5---5-----------------
A|-0---------3-----0---------3-----3---------5---5---3-----
E|---------1---------------1---------------3-------1-------

SOLO PART1

E|----9-------9----------------------------------------------------------9-12/14----9-12-
B|-10------10---------------------------------------------------------10---------10------
G|------11b-----11b-------11---11-11-11p9---------------9-11b9-9-------------------------
D|----------------------------------------11-11-11-9-11------------11--------------------
A|---------------------------------------------------------------------------------------
E|---------------------------------------------------------------------------------------

Stave 3:SOLO PART2

E|-14b14-17-16-14----14-------------------------------------14b---------------------------------
B|----------------17----17-14-17-14----14b14b14b---17-14-------17-14-17-14-------17-15----14----
G|-------------------------------------------------------------------------16-14-------------14-
D|----------------------------------------------------------------------------------------------
A|----------------------------------------------------------------------------------------------
E|----------------------------------------------------------------------------------------------

Stave 4:PRE CHORUS

E|-------------------------------------------------------------------------------------------------
B|-------------------------------------------------------------------------------------------------
G|-------------------------------------------------------------------------------------------------
D|-------------------------------------------------------------------------------------------------
A|-------------------------------------------------------------------------------------------------
E|-------------------------------------------------------------------------------------------------

Stave 5:

E|---
B|---
G|---
D|---
A|---
E|-2-

Stave 6:

E|---
B|---
G|---
D|---
A|---
E|-2-

http://www.guitartabcreator.com
Guitar Tab Creator is intended to store guitar tab created through the tool. It currently does not support in-line text editing. Any text you place in here will be lost. If you need to comment on your tab, please use the "Tab Notes" section located below.