Star Wars (partial)

Chords

01234567891011121314151617181920212223
E
B
G
D
A
E
B
0 1 2 3 4 5 6 7 8 9 10 11 12 13 14 15 16 17 18 19 20 21 22 23
(/) Slide Up  (\) Slide Down  (h) Hammer On  (p) Pull Off  (b) Bend (r) Release (v) Vibrato

Stave 1:

E|-----------------------3------------3--------------
B|------------3----1-0--------3-1-0--------3-1-0-1---
G|-------0-------------2------------2--------------2-
D|-0-0-0---------------------------------------------
A|---------------------------------------------------
E|---------------------------------------------------

Stave 2:

E|--------------------------------
B|------------1-0-----------------
G|----------------2-0-0-2-4-2-----
D|-0-0-2----2-----------------2-4-
A|--------------------------------
E|--------------------------------

Stave 3:

E|-----------------------
B|---------1-0-----3-----
G|-------------2-0---2-2-
D|-0-0-2-2---------------
A|-----------------------
E|-----------------------

Stave 4:

E|-----3-1---------------
B|-3-3-----4-3-1-------3-
G|---------------3-2-0---
D|-----------------------
A|-----------------------
E|-----------------------

Stave 5:

E|---3-------3-3-3-3-
B|-3-----------------
G|-------------------
D|-------------------
A|-------------------
E|-------------------

							http://www.guitartabcreator.com
Instruments
{"title":"","strings":[[[".",".",".",".","_",".","_",".",".",".",3,"_",".",".",".",".",3,"_",".",".",".",".","."],[".",".",".",".","_",3,"_",1,0,".",".","_",3,1,0,".",".","_",3,1,0,1,"."],[".",".",".",0,"_",".","_",".",".",2,".","_",".",".",".",2,".","_",".",".",".",".",2],[0,0,0,".","_",".","_",".",".",".",".","_",".",".",".",".",".","_",".",".",".",".","."],[".",".",".",".","_",".","_",".",".",".",".","_",".",".",".",".",".","_",".",".",".",".","."],[".",".",".",".","_",".","_",".",".",".",".","_",".",".",".",".",".","_",".",".",".",".","."]],[[".",".",".","_",".",".",".",".",".",".",".",".",".",".","."],[".",".",".","_",".",1,0,".",".",".",".",".",".",".","."],[".",".",".","_",".",".",".",2,0,0,2,4,2,".","."],[0,0,2,"_",2,".",".",".",".",".",".",".",".",2,4],[".",".",".","_",".",".",".",".",".",".",".",".",".",".","."],[".",".",".","_",".",".",".",".",".",".",".",".",".",".","."]],[[".",".",".",".",".",".",".",".",".",".","."],[".",".",".",".",1,0,".",".",3,".","."],[".",".",".",".",".",".",2,0,".",2,2],[0,0,2,2,".",".",".",".",".",".","."],[".",".",".",".",".",".",".",".",".",".","."],[".",".",".",".",".",".",".",".",".",".","."]],[[".",".",3,1,".",".",".",".",".",".","."],[3,3,".",".",4,3,1,".",".",".",3],[".",".",".",".",".",".",".",3,2,0,"."],[".",".",".",".",".",".",".",".",".",".","."],[".",".",".",".",".",".",".",".",".",".","."],[".",".",".",".",".",".",".",".",".",".","."]],[[".",3,"_","_",3,3,3,3],[3,".","_","_",".",".",".","."],[".",".","_","_",".",".",".","."],[".",".","_","_",".",".",".","."],[".",".","_","_",".",".",".","."],[".",".","_","_",".",".",".","."]]],"numberofstrings":6,"notes":["E","B","G","D","A","E","B"],"capo":0,"stringnotes":["E4","B3","G3","D3","A2","E2"],"comments":["Stave 1:","Stave 2:","Stave 3:","Stave 4:","Stave 5:"],"timing":[["W","W","W","W",null,"W",null,"W","W","W","W",null,"W","W","W","W","W",null,"W","W","W","W","W"],["W","W","W",null,"W","W","W","W","W","W","W","W","W","W","W"],["W","W","W","W","W","W","W","W","W","W","W"],["W","W","W","W","W","W","W","W","W","W","W"],["W","W",null,null,"W","W","W","W"]],"timingvisible":false,"tabcounter":8,"stave":4,"totalstaves":5,"instrument":"6guitar","selectedtuning":"6_standard","version":"13"}

Member for

3 years
Submitted by kkiffe on Wed, 2019-07-24 16:56