Sound will begin in 5 seconds

Remember Me

Chords
01234567891011121314151617181920212223
E
B
G
D
A
E
B
0 1 2 3 4 5 6 7 8 9 10 11 12 13 14 15 16 17 18 19 20 21 22 23
(/) Slide Up  (\) Slide Down  (h) Hammer On  (p) Pull Off  (b) Bend (r) Release (v) Vibrato

Stave 1:

E|-----------------------------------------------------------------------------------
B|-----1--1--1--1--1--1--1-----1--1--1--1--1--1--1-----1--1--1--1--1--1--1-----------
G|-----0--0--0--0--0--0--0-----1--1--1--1--1--1--1-----0--0--0--0--0--0--0-----------
D|-----------------------------------------------------------------------------------
A|--3-----------------------3-----------------------3--------------------------------
E|-----------------------------------------------------------------------------------

Stave 2:

E|--------------------------------------------------------------------------
B|-----------------------------1--1--1--1--1--1--1-----------------1--1--1--
G|-----3--3--3-----1--1--1-----2--2--2--2--2--2--2-----3--3--3-----0--0--0--
D|-----3--3--3-----0--0--0--2--------------------------3--3--3--------------
A|--1-----------2-----------------------------------1-----------3-----------
E|--------------------------------------------------------------------------

Stave 3:

E|-----------------------------
B|-----8--8--5--1--1-----------
G|-----9--9--5--2--1--------5--
D|--3-----------------------5--
A|-----------------3--------5--
E|-----------------------------

Stave 4:

E|--------------------------------------------------------------------------
B|-----1--1--1--1--1--1--1-----1--1--1--1--1--1--1-----1--1--1--1--1--1--1--
G|-----0--0--0--0--0--0--0-----1--1--1--1--1--1--1-----0--0--0--0--0--0--0--
D|--------------------------------------------------------------------------
A|--3-----------------------3-----------------------3-----------------------
E|--------------------------------------------------------------------------

Stave 5:

E|-----1--1--1-----------------1--1--1--1--1--1--1-----------------
B|-----0--0--0-----1--1--1-----1--1--1--1--1--1--1--0-----1--1-----
G|--0--------------3--3--3--------------------------0-----2--1-----
D|--------------2-----------3-----------------------2--2--2--1-----
A|-----------------------------------------------------2-----------
E|-----------------------------------------------------4-----------

Stave 6:

E|--------------4--4--8--10--------------------
B|--------4--4--4--4--9--9------1--1--1-----1--
G|--5--5--5--5------------------1--1--1-----0--
D|--6--6------------------------0--1--3-----2--
A|------------------------------------------3--
E|---------------------------3--------------3--

http://www.guitartabcreator.com
Guitar Tab Creator is intended to store guitar tab created through the tool. It currently does not support in-line text editing. Any text you place in here will be lost. If you need to comment on your tab, please use the "Tab Notes" section located below.