Sound will begin in 5 seconds

Parasite (beginner - first part)

01234567891011121314151617181920212223
E
B
G
D
A
E
B
0 1 2 3 4 5 6 7 8 9 10 11 12 13 14 15 16 17 18 19 20 21 22 23
(/) Slide Up  (\) Slide Down  (h) Hammer On  (p) Pull Off  (b) Bend (r) Release (v) Vibrato

Play 5x:

E|--------------------------------------------
B|--------------------------------------------
G|--------------------------------------------
D|--------------------------------------------
A|--------------------------------------------
E|-0h1h2-2-2-2-0h1h2-2-2----0h1h2-2-2-2-0h1h2-

Play Stave 2 and then Stave 1, 3 times in a row. Then play stave 2 one more time before moving on

E|-----------------------
B|-----------------------
G|---2-2-------------0---
D|-2-----4-2-4-2-4-2-----
A|-----------------------
E|-----------------------

Play 2x:

E|---------------------------------------
B|---------------------------------------
G|---------------------------------------
D|-------2-0----0-2-0--------------2-2-2-
A|-0-2-2--------------2-0-2-2------------
E|----------------------------0----------

http://www.guitartabcreator.com
Guitar Tab Creator is intended to store guitar tab created through the tool. It currently does not support in-line text editing. Any text you place in here will be lost. If you need to comment on your tab, please use the "Tab Notes" section located below.