Hot Cross Buns

Chords

01234567891011121314151617181920212223
E
B
G
D
A
E
B
0 1 2 3 4 5 6 7 8 9 10 11 12 13 14 15 16 17 18 19 20 21 22 23
(/) Slide Up  (\) Slide Down  (h) Hammer On  (p) Pull Off  (b) Bend (r) Release (v) Vibrato

(W|WW) Whole  (H|HH) Half  (Q|QQ) Quarter  (E|EE) 8th (S|SS) 16th  (T|TT) 32nd (X|XX) 64th

Stave 1:
t:  Q  Q  Q  Q  Q  Q  
E|--0-----------0-----------
B|-----3--1--------3--1-----
G|--------------------------
D|--------------------------
A|--------------------------
E|--------------------------

Stave 2:
t:  E  E  E  E  E  E  E  E  
E|--------------------------
B|--1--1--1--1--3--3--3--3--
G|--------------------------
D|--------------------------
A|--------------------------
E|--------------------------

Stave 3:
t:  Q  Q  Q  
E|--0-----------
B|-----3--1-----
G|--------------
D|--------------
A|--------------
E|--------------

							http://www.guitartabcreator.com
Instruments
{"title":"","strings":[[[0,".",".","_",0,".",".","_"],[".",3,1,"_",".",3,1,"_"],[".",".",".","_",".",".",".","_"],[".",".",".","_",".",".",".","_"],[".",".",".","_",".",".",".","_"],[".",".",".","_",".",".",".","_"]],[[".",".",".",".",".",".",".","."],[1,1,1,1,3,3,3,3],[".",".",".",".",".",".",".","."],[".",".",".",".",".",".",".","."],[".",".",".",".",".",".",".","."],[".",".",".",".",".",".",".","."]],[[0,".",".","_"],[".",3,1,"_"],[".",".",".","_"],[".",".",".","_"],[".",".",".","_"],[".",".",".","_"]]],"numberofstrings":6,"notes":["E","B","G","D","A","E","B"],"capo":0,"stringnotes":["E4","B3","G3","D3","A2","E2"],"comments":["Stave 1:","Stave 2:","Stave 3:"],"timing":[["Q","Q","Q","E","Q","Q","Q","E"],["E","E","E","E","E","E","E","E"],["Q","Q","Q"]],"timingvisible":true,"tabcounter":4,"stave":2,"totalstaves":3,"instrument":"6guitar","selectedtuning":"6_standard","version":"13"}

Member for

3 years 1 month
Submitted by kkiffe on Thu, 2018-01-11 15:24