finger picking chord progression

Chords

01234567891011121314151617181920212223
E
B
G
D
A
E
B
0 1 2 3 4 5 6 7 8 9 10 11 12 13 14 15 16 17 18 19 20 21 22 23
(/) Slide Up  (\) Slide Down  (h) Hammer On  (p) Pull Off  (b) Bend (r) Release (v) Vibrato

Stave 1:

E|-----------------------------------------
B|-----------------------------------------
G|---7---7---7---7----11----11----11----11-
D|-----------------------------------------
A|-----------------------------------------
E|-7---7---7---7---10----10----10----10----

Stave 2:

E|---------------------------------
B|---------------------------------
G|---4---4---4---4---4---4---4---4-
D|---------------------------------
A|---------------------------------
E|-3---3---3---3---3---3---3---3---

Stave 3:

E|---
B|---
G|-4-
D|-0-
A|---
E|-3-

							http://www.guitartabcreator.com
Instruments
{"title":"","strings":[[[".",".",".",".",".",".",".",".",".",".",".",".",".",".",".","."],[".",".",".",".",".",".",".",".",".",".",".",".",".",".",".","."],[".",7,".",7,".",7,".",7,".",11,".",11,".",11,".",11],[".",".",".",".",".",".",".",".",".",".",".",".",".",".",".","."],[".",".",".",".",".",".",".",".",".",".",".",".",".",".",".","."],[7,".",7,".",7,".",7,".",10,".",10,".",10,".",10,"."]],[[".",".",".",".",".",".",".",".",".",".",".",".",".",".",".","."],[".",".",".",".",".",".",".",".",".",".",".",".",".",".",".","."],[".",4,".",4,".",4,".",4,".",4,".",4,".",4,".",4],[".",".",".",".",".",".",".",".",".",".",".",".",".",".",".","."],[".",".",".",".",".",".",".",".",".",".",".",".",".",".",".","."],[3,".",3,".",3,".",3,".",3,".",3,".",3,".",3,"."]],[["."],["."],[4],[0],["."],[3]]],"numberofstrings":6,"notes":["E","B","G","D","A","E","B"],"capo":0,"stringnotes":["E4","B3","G3","D3","A2","E2"],"comments":["Stave 1:","Stave 2:","Stave 3:"],"timing":[["W","W","W","W","W","W","W","W","W","W","W","W","W","W","W","W"],["W","W","W","W","W","W","W","W","W","W","W","W","W","W","W","W"],["W","W"]],"timingvisible":false,"tabcounter":0,"stave":2,"totalstaves":3,"instrument":"6guitar","selectedtuning":"6_standard","version":"13"}

Member for

3 years
Submitted by kkiffe on Mon, 2019-11-04 15:01