Bad Intentions LEAD

01234567891011121314151617181920212223
E
B
G
D
A
E
B
0 1 2 3 4 5 6 7 8 9 10 11 12 13 14 15 16 17 18 19 20 21 22 23
(/) Slide Up  (\) Slide Down  (h) Hammer On  (p) Pull Off  (b) Bend (r) Release (v) Vibrato

Stave 1:

E|------------------------------------------------------------------------------------------------------------
B|--------7--9--10--9--7-----7--------7--------6--7--9--------7--9--10--9--7-----7--------7--------6--7/9--7--
G|-----7------------------7--------6--------6--------------7------------------7--------6--------6-------------
D|--9---------------------------7--------7--------------9---------------------------7--------7----------------
A|------------------------------------------------------------------------------------------------------------
E|------------------------------------------------------------------------------------------------------------

Stave 2:

E|----------------------------------
B|--------6h7--9--------6h7--9--10--
G|-----6-------------6--------------
D|--7-------------7-----------------
A|----------------------------------
E|----------------------------------

Stave 3:

E|--------------------------------------------------------------------------------------------------------------
B|--------------------------------------------------------------------------------------------------------------
G|--------------------------------------------9--------9--------10---------10------------10/12--12--12--12--12--
D|-----------------------------------------------7--9-----7--9------8--10------8--10----------------------------
A|-----------------------6--6--7--6--6--7-----------------------------------------------------------------------
E|--7--7--8--7--7--8--------------------------------------------------------------------------------------------

Stave 4:

E|--9------10--------
B|--9------10--------
G|--9------10--------
D|--11-----12--------
A|--11-----12--------
E|--9------10--------

							http://www.guitartabcreator.com
Chords

Instruments
{"strings":[[[".",".",".",".",".",".",".",".",".",".",".",".",".",".",".",".",".",".",".",".",".",".",".",".",".",".",".",".",".",".",".",".",".",".",".","."],[".",".",7,9,10,9,7,".",7,".",".",7,".",".",6,7,9,".",".",7,9,10,9,7,".",7,".",".",7,".",".",6,7,"/",9,7],[".",7,".",".",".",".",".",7,".",".",6,".",".",6,".",".",".",".",7,".",".",".",".",".",7,".",".",6,".",".",6,".",".",".",".","."],[9,".",".",".",".",".",".",".",".",7,".",".",7,".",".",".",".",9,".",".",".",".",".",".",".",".",7,".",".",7,".",".",".",".",".","."],[".",".",".",".",".",".",".",".",".",".",".",".",".",".",".",".",".",".",".",".",".",".",".",".",".",".",".",".",".",".",".",".",".",".",".","."],[".",".",".",".",".",".",".",".",".",".",".",".",".",".",".",".",".",".",".",".",".",".",".",".",".",".",".",".",".",".",".",".",".",".",".","."]],[[".",".",".",".",".",".",".",".",".",".",".",".","."],[".",".",6,"h",7,9,".",".",6,"h",7,9,10],[".",6,".",".",".",".",".",6,".",".",".",".","."],[7,".",".",".",".",".",7,".",".",".",".",".","."],[".",".",".",".",".",".",".",".",".",".",".",".","."],[".",".",".",".",".",".",".",".",".",".",".",".","."]],[[".",".",".",".",".",".","_",".",".",".",".",".",".","_",".",".",".",".",".",".",".",".",".",".",".",".","_",".",".",".",".",".",".","."],[".",".",".",".",".",".","_",".",".",".",".",".",".","_",".",".",".",".",".",".",".",".",".",".",".",".","_",".",".",".",".",".",".","."],[".",".",".",".",".",".","_",".",".",".",".",".",".","_",9,".",".",9,".",".",10,".",".",10,".",".","_",10,"/",12,12,12,12,12],[".",".",".",".",".",".","_",".",".",".",".",".",".","_",".",7,9,".",7,9,".",8,10,".",8,10,"_",".",".",".",".",".",".","."],[".",".",".",".",".",".","_",6,6,7,6,6,7,"_",".",".",".",".",".",".",".",".",".",".",".",".","_",".",".",".",".",".",".","."],[7,7,8,7,7,8,"_",".",".",".",".",".",".","_",".",".",".",".",".",".",".",".",".",".",".",".","_",".",".",".",".",".",".","."]],[[9,"_",10,"_","_"],[9,"_",10,"_","_"],[9,"_",10,"_","_"],[11,"_",12,"_","_"],[11,"_",12,"_","_"],[9,"_",10,"_","_"]]],"numberofstrings":6,"notes":["E","B","G","D","A","E","B"],"capo":0,"stringnotes":["E4","B3","G3","D3","A2","E2"],"comments":["Stave 1:","Stave 2:","Stave 3:","Stave 4:"],"timing":[["W","W","W","W","W","W","W","W","W","W","W","W","W","W","W","W","W","W","W","W","W","W","W","W","W","W","W","W","W","W","W","W","W",null,"W","W"],["W","W","W",null,"W","W","W","W","W",null,"W","W","W"],["W","W","W","W","W","W","W","W","W","W","W","W","W","W","W","W","W","W","W","W","W","W","W","W","W","W","W","W",null,"W","W","W","W","W"],["W","W","W","W","W"]],"timingvisible":false,"tabcounter":5,"stave":3,"totalstaves":4,"instrument":"6guitar","selectedtuning":"6_standard","version":"13"}

Member for

10 months
Submitted by KK94 on Wed, 2022-05-18 04:52