Savoring

Chords

01234567891011121314151617181920212223
E
B
G
D
A
E
B
0 1 2 3 4 5 6 7 8 9 10 11 12 13 14 15 16 17 18 19 20 21 22 23
(/) Slide Up  (\) Slide Down  (h) Hammer On  (p) Pull Off  (b) Bend (r) Release (v) Vibrato

0:00 - 0:10

Eb|--1-----1--
Bb|--1-----3--
Gb|--2-----2--
Db|--3-----0--
Ab|--3--------
Eb|--1--------

0:11 - 0:15

Eb|--------------------------------------------------------------
Bb|--10------10------8------8----------------------8------8------
Gb|--------------------------------10------10--------------------
Db|------10------10-----10-----10------10------10-----10-----10--
Ab|--------------------------------------------------------------
Eb|--------------------------------------------------------------

0:16 - 0:27 (Play 2x)

Eb|---------------------------
Bb|--10-----8-------------8---
Gb|--10-----0------10-----0---
Db|--10-----10-----10-----10--
Ab|---------------------------
Eb|---------------------------

0:27 - 0:37

Eb|---------------------------------------------------------------------------------------------
Bb|--10------10------8------8----------------------8------8---------10--------10--10--------10--
Gb|--------------------------------10------10-----------------------10--------10--10--------10--
Db|------10------10-----10-----10------10------10-----10-----10-----10--------10--10--------10--
Ab|-----------------------------------------------------------------8---------8---8---------8---
Eb|---------------------------------------------------------------------------------------------

0:38 - 0:47  Strum First Chord like crazy

Eb|----------------------------
Bb|--5-------------------------
Gb|--5--------9-----10-----12--
Db|--3-------------------------
Ab|--0--------7-----8------10--
Eb|----------------------------

0:48 - 1:10 (Play the riff 3x then play the final chord with drums)

Eb|---------------------------------------------------------------------------
Bb|--10------10------8------8----------------------8------8-------------------
Gb|--------------------------------10------10-----------------------------9---
Db|------10------10-----10-----10------10------10-----10-----10-----------10--
Ab|-----------------------------------------------------------------------7---
Eb|---------------------------------------------------------------------------

1:10 - 1:30(Strum final chord like last time)

Eb|--------------------------------------------------------------------------------------------------------------------------------
Bb|--10-----8-------------8------10-----8-------------8------10------10------8------8----------------------8------8------------10--
Gb|--10-----0------10-----0------10-----0------10-----0------------------------------------10------10--------------------------10--
Db|--10-----10-----10-----10-----10-----10-----10-----10---------10------10-----10-----10------10------10-----10-----10--------10--
Ab|----------------------------------------------------------------------------------------------------------------------------8---
Eb|--------------------------------------------------------------------------------------------------------------------------------

1:30 - 1:42 (Strum first chord like crazy)

Eb|----------------------------
Bb|--5-------------------------
Gb|--5--------9-----10-----12--
Db|--3-------------------------
Ab|--0--------7-----8------10--
Eb|----------------------------

1:43 (Play 2x)

Eb|--------------------------------------------------------------
Bb|--10------10------8------8----------------------8------8------
Gb|--------------------------------10------10--------------------
Db|------10------10-----10-----10------10------10-----10-----10--
Ab|--------------------------------------------------------------
Eb|--------------------------------------------------------------



Eb|---------------------------------------------------12b13--12--10--12--13------13------12------12------10------10------12------12------
Bb|--10------10------8------8------------------------------------------------10------10------10------10------10------10------10------10--
Gb|--------------------------------10------10--------------------------------------------------------------------------------------------
Db|------10------10-----10-----10------10------10----------------------------------------------------------------------------------------
Ab|--------------------------------------------------------------------------------------------------------------------------------------
Eb|--------------------------------------------------------------------------------------------------------------------------------------



Eb|--13------13------12------12------10------10------12------12------13------13------15------15------15------15------18------18------17--
Bb|------10------10------10------10------10------10------10------10------10------10------13------13------13------13------13------13--13--
Gb|--------------------------------------------------------------------------------------------------------------------------------------
Db|--------------------------------------------------------------------------------------------------------------------------------------
Ab|--------------------------------------------------------------------------------------------------------------------------------------
Eb|--------------------------------------------------------------------------------------------------------------------------------------

This part sounds good in middle position with some reverb and slight drive and analog delay

Eb|--1------------------------------------------------------------------------
Bb|--3--------------10b---8--6--------10b---8--6--5--6--------8b10--------8---
Gb|--2--------------------------------------------------------------------9---
Db|--0--------------------------------------------------------------------10--
Ab|-----------------------------------------------------------------------8---
Eb|---------------------------------------------------------------------------

Optional ending chord

Eb|------
Bb|--10--
Gb|--10--
Db|--10--
Ab|--8---
Eb|------

							http://www.guitartabcreator.com
Instruments
{"strings":[[[1,"_",1],[1,"_",3],[2,"_",2],[3,"_",0],[3,"_","."],[1,"_","."]],[[".",".",".",".",".",".",".",".",".",".",".",".",".",".",".","."],[10,".",10,".",8,".",8,".",".",".",".",".",8,".",8,"."],[".",".",".",".",".",".",".",".",10,".",10,".",".",".",".","."],[".",10,".",10,".",10,".",10,".",10,".",10,".",10,".",10],[".",".",".",".",".",".",".",".",".",".",".",".",".",".",".","."],[".",".",".",".",".",".",".",".",".",".",".",".",".",".",".","."]],[[".","_",".","_",".","_","."],[10,"_",8,"_",".","_",8],[10,"_",0,"_",10,"_",0],[10,"_",10,"_",10,"_",10],[".","_",".","_",".","_","."],[".","_",".","_",".","_","."]],[[".",".",".",".",".",".",".",".",".",".",".",".",".",".",".",".","_",".","_","_",".",".","_","_","."],[10,".",10,".",8,".",8,".",".",".",".",".",8,".",8,".","_",10,"_","_",10,10,"_","_",10],[".",".",".",".",".",".",".",".",10,".",10,".",".",".",".",".","_",10,"_","_",10,10,"_","_",10],[".",10,".",10,".",10,".",10,".",10,".",10,".",10,".",10,"_",10,"_","_",10,10,"_","_",10],[".",".",".",".",".",".",".",".",".",".",".",".",".",".",".",".","_",8,"_","_",8,8,"_","_",8],[".",".",".",".",".",".",".",".",".",".",".",".",".",".",".",".","_",".","_","_",".",".","_","_","."]],[[".","_","_",".","_",".","_","."],[5,"_","_",".","_",".","_","."],[5,"_","_",9,"_",10,"_",12],[3,"_","_",".","_",".","_","."],[0,"_","_",7,"_",8,"_",10],[".","_","_",".","_",".","_","."]],[[".",".",".",".",".",".",".",".",".",".",".",".",".",".",".",".","_","_","_","."],[10,".",10,".",8,".",8,".",".",".",".",".",8,".",8,".","_","_","_","."],[".",".",".",".",".",".",".",".",10,".",10,".",".",".",".",".","_","_","_",9],[".",10,".",10,".",10,".",10,".",10,".",10,".",10,".",10,"_","_","_",10],[".",".",".",".",".",".",".",".",".",".",".",".",".",".",".",".","_","_","_",7],[".",".",".",".",".",".",".",".",".",".",".",".",".",".",".",".","_","_","_","."]],[[".","_",".","_",".","_",".","_",".","_",".","_",".","_",".","_",".",".",".",".",".",".",".",".",".",".",".",".",".",".",".",".","_","_","."],[10,"_",8,"_",".","_",8,"_",10,"_",8,"_",".","_",8,"_",10,".",10,".",8,".",8,".",".",".",".",".",8,".",8,".","_","_",10],[10,"_",0,"_",10,"_",0,"_",10,"_",0,"_",10,"_",0,"_",".",".",".",".",".",".",".",".",10,".",10,".",".",".",".",".","_","_",10],[10,"_",10,"_",10,"_",10,"_",10,"_",10,"_",10,"_",10,"_",".",10,".",10,".",10,".",10,".",10,".",10,".",10,".",10,"_","_",10],[".","_",".","_",".","_",".","_",".","_",".","_",".","_",".","_",".",".",".",".",".",".",".",".",".",".",".",".",".",".",".",".","_","_",8],[".","_",".","_",".","_",".","_",".","_",".","_",".","_",".","_",".",".",".",".",".",".",".",".",".",".",".",".",".",".",".",".","_","_","."]],[[".","_","_",".","_",".","_","."],[5,"_","_",".","_",".","_","."],[5,"_","_",9,"_",10,"_",12],[3,"_","_",".","_",".","_","."],[0,"_","_",7,"_",8,"_",10],[".","_","_",".","_",".","_","."]],[[".",".",".",".",".",".",".",".",".",".",".",".",".",".",".","."],[10,".",10,".",8,".",8,".",".",".",".",".",8,".",8,"."],[".",".",".",".",".",".",".",".",10,".",10,".",".",".",".","."],[".",10,".",10,".",10,".",10,".",10,".",10,".",10,".",10],[".",".",".",".",".",".",".",".",".",".",".",".",".",".",".","."],[".",".",".",".",".",".",".",".",".",".",".",".",".",".",".","."]],[[".",".",".",".",".",".",".",".",".",".",".",".","_",12,"b",13,12,10,12,13,".",13,".",12,".",12,".",10,".",10,".",12,".",12,"."],[10,".",10,".",8,".",8,".",".",".",".",".","_",".",".",".",".",".",".",".",10,".",10,".",10,".",10,".",10,".",10,".",10,".",10],[".",".",".",".",".",".",".",".",10,".",10,".","_",".",".",".",".",".",".",".",".",".",".",".",".",".",".",".",".",".",".",".",".",".","."],[".",10,".",10,".",10,".",10,".",10,".",10,"_",".",".",".",".",".",".",".",".",".",".",".",".",".",".",".",".",".",".",".",".",".","."],[".",".",".",".",".",".",".",".",".",".",".",".","_",".",".",".",".",".",".",".",".",".",".",".",".",".",".",".",".",".",".",".",".",".","."],[".",".",".",".",".",".",".",".",".",".",".",".","_",".",".",".",".",".",".",".",".",".",".",".",".",".",".",".",".",".",".",".",".",".","."]],[[13,".",13,".",12,".",12,".",10,".",10,".",12,".",12,".",13,".",13,".",15,".",15,".",15,".",15,".",18,".",18,".",17],[".",10,".",10,".",10,".",10,".",10,".",10,".",10,".",10,".",10,".",10,".",13,".",13,".",13,".",13,".",13,".",13,13],[".",".",".",".",".",".",".",".",".",".",".",".",".",".",".",".",".",".",".",".",".",".",".",".",".",".",".",".",".",".",".",".","."],[".",".",".",".",".",".",".",".",".",".",".",".",".",".",".",".",".",".",".",".",".",".",".",".",".",".",".",".",".",".",".",".","."],[".",".",".",".",".",".",".",".",".",".",".",".",".",".",".",".",".",".",".",".",".",".",".",".",".",".",".",".",".",".",".",".","."],[".",".",".",".",".",".",".",".",".",".",".",".",".",".",".",".",".",".",".",".",".",".",".",".",".",".",".",".",".",".",".",".","."]],[[1,"_","_","_","_",".",".",".",".",".","_","_",".",".",".",".",".",".",".","_","_",".",".",".","_","_","."],[3,"_","_","_","_",10,"b",".",8,6,"_","_",10,"b",".",8,6,5,6,"_","_",8,"b",10,"_","_",8],[2,"_","_","_","_",".",".",".",".",".","_","_",".",".",".",".",".",".",".","_","_",".",".",".","_","_",9],[0,"_","_","_","_",".",".",".",".",".","_","_",".",".",".",".",".",".",".","_","_",".",".",".","_","_",10],[".","_","_","_","_",".",".",".",".",".","_","_",".",".",".",".",".",".",".","_","_",".",".",".","_","_",8],[".","_","_","_","_",".",".",".",".",".","_","_",".",".",".",".",".",".",".","_","_",".",".",".","_","_","."]],[["."],[10],[10],[10],[8],["."]]],"numberofstrings":6,"notes":["DsEb","AsBb","FsGb","CsDb","GsAb","DsEb"],"capo":0,"stringnotes":["Eb3","Bb2","Gb2","Db2","Ab1","Eb1"],"comments":["0:00 - 0:10","0:11 - 0:15","0:16 - 0:27 (Play 2x)","0:27 - 0:37","0:38 - 0:47 Strum First Chord like crazy","0:48 - 1:10 (Play the riff 3x then play the final chord with drums)","1:10 - 1:30(Strum final chord like last time)","1:30 - 1:42 (Strum first chord like crazy)","1:43 (Play 2x)","","","This part sounds good in middle position with some reverb and slight drive and analog delay","Optional ending chord"],"timing":[["W",null,"W"],["W","W","W","W","W","W","W","W","W","W","W","W","W","W","W","W"],["W",null,"W",null,"W",null,"W"],["W","W","W","W","W","W","W","W","W","W","W","W","W","W","W","W",null,"W","W","W","W","W",null,null,"W"],["W","W",null,"W",null,"W",null,"W"],["W","W","W","W","W","W","W","W","W","W","W","W","W","W","W","W",null,null,null,"W"],["W","W","W","W","W","W","W","W","W","W","W","W","W","W","W","W","W","W","W","W","W","W","W","W","W","W","W","W","W","W","W","W",null,null,"W"],["W",null,"W",null,"W",null,"W"],["W",null,null,"W","W","W",null,"W","W","W"],["W","W","W","W","W","W","W","W","W","W","W","W","W","W","W","W"],["W","W","W","W","W","W","W","W","W","W","W","W","W","W","W","W","W","W","W","W","W","W","W","W","W","W","W","W","W","W","W","W","W"],["W",null,null,null,null,"W","W","W","W",null,null,"W","W","W","W","W","W",null,null,"W",null,"W","W","W","W",null,"W"],["W"]],"timingvisible":false,"tabcounter":1,"stave":12,"totalstaves":13,"instrument":"6guitar","selectedtuning":"Half Step Down","version":"13"}

Member for

3 months 3 weeks
Submitted by kjwtabs2000 on Fri, 2020-10-23 15:43