Savoring

Chords

01234567891011121314151617181920212223
E
B
G
D
A
E
B
0 1 2 3 4 5 6 7 8 9 10 11 12 13 14 15 16 17 18 19 20 21 22 23
(/) Slide Up  (\) Slide Down  (h) Hammer On  (p) Pull Off  (b) Bend (r) Release (v) Vibrato

Stave 1:

Eb|--1-----1--
Bb|--1-----3--
Gb|--2-----2--
Db|--3-----0--
Ab|--3--------
Eb|--1--------

Stave 2:

Eb|--------------------------------------------------------------
Bb|--10------10------8------8----------------------8------8------
Gb|--------------------------------10------10--------------------
Db|------10------10-----10-----10------10------10-----10-----10--
Ab|--------------------------------------------------------------
Eb|--------------------------------------------------------------

Stave 3:

Eb|---------------------------
Bb|--10-----8-------------8---
Gb|--10-----0------10-----0---
Db|--10-----10-----10-----10--
Ab|---------------------------
Eb|---------------------------

Stave 4:

Eb|---------------------------------------------------------------------------------------------
Bb|--10------10------8------8----------------------8------8---------10--------10--10--------10--
Gb|--------------------------------10------10-----------------------10--------10--10--------10--
Db|------10------10-----10-----10------10------10-----10-----10-----10--------10--10--------10--
Ab|-----------------------------------------------------------------8---------8---8---------8---
Eb|---------------------------------------------------------------------------------------------

Stave 5:

Eb|----------------------------
Bb|--5-------------------------
Gb|--5--------9-----10-----12--
Db|--3-------------------------
Ab|--0--------7-----8------10--
Eb|----------------------------

Stave 6:

Eb|--------------------------------------------------------------
Bb|--10------10------8------8----------------------8------8------
Gb|--------------------------------10------10--------------------
Db|------10------10-----10-----10------10------10-----10-----10--
Ab|--------------------------------------------------------------
Eb|--------------------------------------------------------------

Stave 7:

Eb|-----------------------------------------------------------------
Bb|--10------10------8------8----------------------8------8---------
Gb|--------------------------------10------10-------------------9---
Db|------10------10-----10-----10------10------10-----10--------10--
Ab|-------------------------------------------------------------7---
Eb|-----------------------------------------------------------------

Stave 8:

Eb|---------------------------
Bb|--10-----8-------------8---
Gb|--10-----0------10-----0---
Db|--10-----10-----10-----10--
Ab|---------------------------
Eb|---------------------------

Stave 9:

Eb|----------------------------
Bb|--5-------------------------
Gb|--5--------9-----10-----12--
Db|--3-------------------------
Ab|--0--------7-----8------10--
Eb|----------------------------

Stave 10:

Eb|--------------------------------------------------------------
Bb|--10------10------8------8----------------------8------8------
Gb|--------------------------------10------10--------------------
Db|------10------10-----10-----10------10------10-----10-----10--
Ab|--------------------------------------------------------------
Eb|--------------------------------------------------------------

Stave 11:

Eb|---------------------------------------------------12b13--12--10--12--13------13------12------12------10------10------12------12------
Bb|--10------10------8------8------------------------------------------------10------10------10------10------10------10------10------10--
Gb|--------------------------------10------10--------------------------------------------------------------------------------------------
Db|------10------10-----10-----10------10------10----------------------------------------------------------------------------------------
Ab|--------------------------------------------------------------------------------------------------------------------------------------
Eb|--------------------------------------------------------------------------------------------------------------------------------------

							http://www.guitartabcreator.com
Instruments
{"strings":[[[1,"_",1],[1,"_",3],[2,"_",2],[3,"_",0],[3,"_","."],[1,"_","."]],[[".",".",".",".",".",".",".",".",".",".",".",".",".",".",".","."],[10,".",10,".",8,".",8,".",".",".",".",".",8,".",8,"."],[".",".",".",".",".",".",".",".",10,".",10,".",".",".",".","."],[".",10,".",10,".",10,".",10,".",10,".",10,".",10,".",10],[".",".",".",".",".",".",".",".",".",".",".",".",".",".",".","."],[".",".",".",".",".",".",".",".",".",".",".",".",".",".",".","."]],[[".","_",".","_",".","_","."],[10,"_",8,"_",".","_",8],[10,"_",0,"_",10,"_",0],[10,"_",10,"_",10,"_",10],[".","_",".","_",".","_","."],[".","_",".","_",".","_","."]],[[".",".",".",".",".",".",".",".",".",".",".",".",".",".",".",".","_",".","_","_",".",".","_","_","."],[10,".",10,".",8,".",8,".",".",".",".",".",8,".",8,".","_",10,"_","_",10,10,"_","_",10],[".",".",".",".",".",".",".",".",10,".",10,".",".",".",".",".","_",10,"_","_",10,10,"_","_",10],[".",10,".",10,".",10,".",10,".",10,".",10,".",10,".",10,"_",10,"_","_",10,10,"_","_",10],[".",".",".",".",".",".",".",".",".",".",".",".",".",".",".",".","_",8,"_","_",8,8,"_","_",8],[".",".",".",".",".",".",".",".",".",".",".",".",".",".",".",".","_",".","_","_",".",".","_","_","."]],[[".","_","_",".","_",".","_","."],[5,"_","_",".","_",".","_","."],[5,"_","_",9,"_",10,"_",12],[3,"_","_",".","_",".","_","."],[0,"_","_",7,"_",8,"_",10],[".","_","_",".","_",".","_","."]],[[".",".",".",".",".",".",".",".",".",".",".",".",".",".",".","."],[10,".",10,".",8,".",8,".",".",".",".",".",8,".",8,"."],[".",".",".",".",".",".",".",".",10,".",10,".",".",".",".","."],[".",10,".",10,".",10,".",10,".",10,".",10,".",10,".",10],[".",".",".",".",".",".",".",".",".",".",".",".",".",".",".","."],[".",".",".",".",".",".",".",".",".",".",".",".",".",".",".","."]],[[".",".",".",".",".",".",".",".",".",".",".",".",".",".",".","_","."],[10,".",10,".",8,".",8,".",".",".",".",".",8,".",8,"_","."],[".",".",".",".",".",".",".",".",10,".",10,".",".",".",".","_",9],[".",10,".",10,".",10,".",10,".",10,".",10,".",10,".","_",10],[".",".",".",".",".",".",".",".",".",".",".",".",".",".",".","_",7],[".",".",".",".",".",".",".",".",".",".",".",".",".",".",".","_","."]],[[".","_",".","_",".","_","."],[10,"_",8,"_",".","_",8],[10,"_",0,"_",10,"_",0],[10,"_",10,"_",10,"_",10],[".","_",".","_",".","_","."],[".","_",".","_",".","_","."]],[[".","_","_",".","_",".","_","."],[5,"_","_",".","_",".","_","."],[5,"_","_",9,"_",10,"_",12],[3,"_","_",".","_",".","_","."],[0,"_","_",7,"_",8,"_",10],[".","_","_",".","_",".","_","."]],[[".",".",".",".",".",".",".",".",".",".",".",".",".",".",".","."],[10,".",10,".",8,".",8,".",".",".",".",".",8,".",8,"."],[".",".",".",".",".",".",".",".",10,".",10,".",".",".",".","."],[".",10,".",10,".",10,".",10,".",10,".",10,".",10,".",10],[".",".",".",".",".",".",".",".",".",".",".",".",".",".",".","."],[".",".",".",".",".",".",".",".",".",".",".",".",".",".",".","."]],[[".",".",".",".",".",".",".",".",".",".",".",".","_",12,"b",13,12,10,12,13,".",13,".",12,".",12,".",10,".",10,".",12,".",12,"."],[10,".",10,".",8,".",8,".",".",".",".",".","_",".",".",".",".",".",".",".",10,".",10,".",10,".",10,".",10,".",10,".",10,".",10],[".",".",".",".",".",".",".",".",10,".",10,".","_",".",".",".",".",".",".",".",".",".",".",".",".",".",".",".",".",".",".",".",".",".","."],[".",10,".",10,".",10,".",10,".",10,".",10,"_",".",".",".",".",".",".",".",".",".",".",".",".",".",".",".",".",".",".",".",".",".","."],[".",".",".",".",".",".",".",".",".",".",".",".","_",".",".",".",".",".",".",".",".",".",".",".",".",".",".",".",".",".",".",".",".",".","."],[".",".",".",".",".",".",".",".",".",".",".",".","_",".",".",".",".",".",".",".",".",".",".",".",".",".",".",".",".",".",".",".",".",".","."]]],"numberofstrings":6,"notes":["DsEb","AsBb","FsGb","CsDb","GsAb","DsEb"],"capo":0,"stringnotes":["Eb3","Bb2","Gb2","Db2","Ab1","Eb1"],"comments":["Stave 1:","Stave 2:","Stave 3:","Stave 4:","Stave 5:","Stave 6:","Stave 7:","Stave 8:","Stave 9:","Stave 10:","Stave 11:","Stave 12:"],"timing":[["W",null,"W"],["W","W","W","W","W","W","W","W","W","W","W","W","W","W","W","W"],["W",null,"W",null,"W",null,"W"],["W","W","W","W","W","W","W","W","W","W","W","W","W","W","W","W",null,"W","W","W","W","W",null,null,"W"],["W","W",null,"W",null,"W",null,"W"],["W","W","W","W","W","W","W","W","W","W","W","W","W","W","W","W"],["W","W","W","W","W","W","W","W","W","W","W","W","W","W","W","W","W","W"],["W",null,"W",null,"W",null,"W"],["W",null,null,"W","W","W",null,"W","W","W"],["W","W","W","W","W","W","W","W","W","W","W","W","W","W","W","W"],["W","W","W","W","W","W","W","W","W","W","W","W",null,"W","W","W","W","W","W","W","W","W","W","W","W","W","W","W","W","W","W","W","W","W","W"],[]],"timingvisible":false,"tabcounter":0,"totalstaves":11,"instrument":"6guitar","selectedtuning":"Half Step Down","version":"13"}

Member for

3 months 3 weeks
Submitted by kjwtabs2000 on Fri, 2020-10-23 14:12