Flowers and You - Touché Amoré

01234567891011121314151617181920212223
E
B
G
D
A
E
B
0 1 2 3 4 5 6 7 8 9 10 11 12 13 14 15 16 17 18 19 20 21 22 23
(/) Slide Up  (\) Slide Down  (h) Hammer On  (p) Pull Off  (b) Bend (r) Release (v) Vibrato

INTRO: Play twice and slide down to each chord. ONLY PLAY LAST CHORD AFTER FIRST TIME THROUGH

Eb|--------------------------------------
Bb|--------------------------------------
Gb|--13-----13--11-----11--9---------9---
Db|--14-----14--13-----13--11--------11--
Ab|----------------------------------12--
Eb|--------------------------------------

(Lead Guitar, Nick) INTRO PART 2 with 2nd guitar, Play (2x)

Eb|--------------------------------------
Bb|--------------------------------------
Gb|--13-----13--11-----11--9---------9---
Db|--14-----14--13-----13--11--------11--
Ab|----------------------------------12--
Eb|--------------------------------------

INTRO PART 2 (Rhythm Guitar, Clayton) With Analog Delay, Play (2x)

Eb|------------------
Bb|------------------
Gb|--13--11--16--14--
Db|------------------
Ab|--11--9---14--12--
Eb|------------------

VERSE 1 Both Guitars, Play (2x)

Eb|--------------5-----------7--
Bb|--5-----5-----5-----9-----7--
Gb|--6-----6-----6-----9-----8--
Db|--6-----6-----7-----9-----9--
Ab|--4-----------7-----7-----9--
Eb|--------4-----5-----0-----7--

CHORUS 1, Both Guitars

Eb|----------------------------------------------------------
Bb|----------------------------------------------------------
Gb|-----9------------9------------9-----------9--------9-----
Db|--------6v-----------6v-----------6-----------7--------6--
Ab|--7------------7------------------------0--------0--------
Eb|----------------------------9-----------------------------

VERSE 2, same as verse 1, both guitars

Eb|--------------5-----------7--
Bb|--5-----5-----5-----9-----7--
Gb|--6-----6-----6-----9-----8--
Db|--6-----6-----7-----9-----9--
Ab|--4-----------7-----7-----9--
Eb|--------4-----5-----0-----7--

CHORUS 2, Lead Guitar, half of it is same as Chorus 1, then there is the alternative part that is played. 

Eb|----------------------------------------------------------------------------------------------------
Bb|----------------------------------------------------------------9-----------9--------9--------9-----
Gb|-----9------------9------------9-----------9--------9--------------9-----------9--------9--------9--
Db|--------6v-----------6v-----------6-----------7--------7--------------------------------------------
Ab|--7------------7------------------------0--------0-----------------------------------------0--------
Eb|----------------------------9--------------------------------0-----------0--------9-----------------

CHORUS 2, Rhythm Guitar, don't know why last chord looks different :/

Eb|-----------------------------------------5--------------------------------------------------------------5--
Bb|--------------------------5--------------5--------------------------------------------------5-----------5--
Gb|--9--------------9--------6--------------6--------------------------9--------------9--------6-----------6--
Db|--9--------------9--------6--------------7--------------------------9--------------9--------6-----------7--
Ab|--7--------------6--------4--------------7--------------------------7--------------6--------4-----------7--
Eb|--0--------------0-----------------------5--------------------------0--------------0--------------------5--

END OF CHORUS 2, end on this chord and slide down

Eb|-----
Bb|-----
Gb|--9--
Db|--9--
Ab|--7--
Eb|--0--

BRIDGE PART 1, Lead Guitar, Slide down each chord, Same as intro but you play the 9,11,12 chord without repeating, then playing it. (Lyrics, it was time this whole time, ect.)

Eb|------------------------_--------------------------------------------
Bb|------------------------_--------------------------------------------
Gb|--13-----13--11-----11--9---------9------13-----13--11-----11-----9---
Db|--14-----14--13-----13--11--------11-----14-----14--13-----13-----11--
Ab|------------------------_--------12------------------------------12--
Eb|------------------------_--------------------------------------------

BRIDGE PART 1, Rhythm Guitar, Slightly different as intro

Eb|---------------------------------------------------------------------
Bb|-------------------------------12--12/14-----------------------------
Gb|--13--11----------------------------------13b---11--------16-----14--
Db|---------------------------------------------------------------------
Ab|--11--9-----------------------------------------9---------14-----12--
Eb|---------------------------------------------------------------------

BRIDGE PART 2, Lead Guitar, same as bridge part 1 (Lyrics: Just a simple conversation, ect.) 

Eb|--
Bb|--
Gb|--
Db|--
Ab|--
Eb|--

BRIDGE PART 2, Rhythm Guitar, same as bridge part 1, with an additional note

Eb|---------------------------------------------------------------------
Bb|------14-------------12-----12/14------------------------------------
Gb|--13------13--11-------------------13b------11-----16-----14-----13--
Db|---------------------------------------------------------------------
Ab|--11----------9-----------------------------9------14-----12-----11--
Eb|---------------------------------------------------------------------

CHORUS 3/ OUTRO, both guitars, same as Rhythm guitar Chorus 2 PLAY (3x)

Eb|-----------------------5--------
Bb|-----------------5-----5--------
Gb|-----9-----9-----6-----6--------
Db|-----9-----9-----6-----7--------
Ab|-----7-----6-----4-----7--------
Eb|-----0-----0-----------5--------

CHORUS 3/ OUTRO Slightly different riff, play (1x)

Eb|-----------------------------7--
Bb|-----------------5-----9-----7--
Gb|-----9-----9-----6-----9-----8--
Db|-----9-----9-----6-----9-----9--
Ab|-----7-----6-----4-----7-----9--
Eb|-----0-----0-----------0-----7--

ENDING NOTES!!

Eb|----------
Bb|----------
Gb|-----9----
Db|--------6b
Ab|--7-------
Eb|----------

							http://www.guitartabcreator.com
Chords

Instruments
{"strings":[[[".","_",".",".","_",".",".","_","_","."],[".","_",".",".","_",".",".","_","_","."],[13,"_",13,11,"_",11,9,"_","_",9],[14,"_",14,13,"_",13,11,"_","_",11],[".","_",".",".","_",".",".","_","_",12],[".","_",".",".","_",".",".","_","_","."]],[[".","_",".",".","_",".",".","_","_","."],[".","_",".",".","_",".",".","_","_","."],[13,"_",13,11,"_",11,9,"_","_",9],[14,"_",14,13,"_",13,11,"_","_",11],[".","_",".",".","_",".",".","_","_",12],[".","_",".",".","_",".",".","_","_","."]],[[".",".",".","."],[".",".",".","."],[13,11,16,14],[".",".",".","."],[11,9,14,12],[".",".",".","."]],[[".","_",".",".",5,"_",".","_",7],[5,"_",5,".",5,"_",9,"_",7],[6,"_",6,".",6,"_",9,"_",8],[6,"_",6,".",7,"_",9,"_",9],[4,"_",".",".",7,"_",7,"_",9],[".","_",4,".",5,"_",0,"_",7]],[[".",".",".",".","_",".",".",".",".","_",".",".",".","_",".",".",".",".",".","."],[".",".",".",".","_",".",".",".",".","_",".",".",".","_",".",".",".",".",".","."],[".",9,".",".","_",".",9,".",".","_",".",9,".","_",".",9,".",".",9,"."],[".",".",6,"v","_",".",".",6,"v","_",".",".",6,"_",".",".",7,".",".",6],[7,".",".",".","_",7,".",".",".","_",".",".",".","_",0,".",".",0,".","."],[".",".",".",".","_",".",".",".",".","_",9,".",".","_",".",".",".",".",".","."]],[[".","_",".","_",5,"_",".","_",7],[5,"_",5,"_",5,"_",9,"_",7],[6,"_",6,"_",6,"_",9,"_",8],[6,"_",6,"_",7,"_",9,"_",9],[4,"_",".","_",7,"_",7,"_",9],[".","_",4,"_",5,"_",0,"_",7]],[[".",".",".",".","_",".",".",".",".","_",".",".",".","_",".",".",".",".",".",".","_",".",".",".","_",".",".",".",".",".",".",".",".","."],[".",".",".",".","_",".",".",".",".","_",".",".",".","_",".",".",".",".",".",".","_",".",9,".","_",".",9,".",".",9,".",".",9,"."],[".",9,".",".","_",".",9,".",".","_",".",9,".","_",".",9,".",".",9,".","_",".",".",9,"_",".",".",9,".",".",9,".",".",9],[".",".",6,"v","_",".",".",6,"v","_",".",".",6,"_",".",".",7,".",".",7,"_",".",".",".","_",".",".",".",".",".",".",".",".","."],[7,".",".",".","_",7,".",".",".","_",".",".",".","_",0,".",".",0,".",".","_",".",".",".","_",".",".",".",".",".",".",0,".","."],[".",".",".",".","_",".",".",".",".","_",9,".",".","_",".",".",".",".",".",".","_",0,".",".","_",0,".",".",9,".",".",".",".","."]],[[".",".",".",".",".",".","_","_",".","_","_","_","_",5,"_","_","_","_","_","_","_","_",".","_","_","_","_",".","_","_","_","_","_","_",5],[".",".",".",".",".",".","_","_",5,"_","_","_","_",5,"_","_","_","_","_","_","_","_",".","_","_","_","_",".","_","_",5,"_","_","_",5],[9,".",".",".",".",9,"_","_",6,"_","_","_","_",6,"_","_","_","_","_","_","_","_",9,"_","_","_","_",9,"_","_",6,"_","_","_",6],[9,".",".",".",".",9,"_","_",6,"_","_","_","_",7,"_","_","_","_","_","_","_","_",9,"_","_","_","_",9,"_","_",6,"_","_","_",7],[7,".",".",".",".",6,"_","_",4,"_","_","_","_",7,"_","_","_","_","_","_","_","_",7,"_","_","_","_",6,"_","_",4,"_","_","_",7],[0,".",".",".",".",0,"_","_",".","_","_","_","_",5,"_","_","_","_","_","_","_","_",0,"_","_","_","_",0,"_","_","_","_","_","_",5]],[["."],["."],[9],[9],[7],[0]],[[".","_",".",".","_",".","_","_","_",".","_",".","_",".",".","_",".","_","."],[".","_",".",".","_",".","_","_","_",".","_",".","_",".",".","_",".","_","."],[13,"_",13,11,"_",11,9,"_","_",9,"_",13,"_",13,11,"_",11,"_",9],[14,"_",14,13,"_",13,11,"_","_",11,"_",14,"_",14,13,"_",13,"_",11],[".","_",".",".","_",".","_","_","_",12,"_",".","_",".",".","_",".","_",12],[".","_",".",".","_",".","_","_","_",".","_",".","_",".",".","_",".","_","."]],[[".",".","_","_","_",".",".",".",".",".",".",".",".",".","_","_",".","_","_",".","_","."],[".",".","_","_","_",".",".",".",".",12,12,"/",14,".","_","_",".","_","_",".","_","."],[13,11,"_","_","_",".",".",".",".",".",".",".",".",13,"b","_",11,"_","_",16,"_",14],[".",".","_","_","_",".",".",".",".",".",".",".",".",".","_","_",".","_","_",".","_","."],[11,9,"_","_","_",".",".",".",".",".",".",".",".",".","_","_",9,"_","_",14,"_",12],[".",".","_","_","_",".",".",".",".",".",".",".",".",".","_","_",".","_","_",".","_","."]],[[],[],[],[],[],[]],[[".",".",".",".","_",".",".",".",".",".",".",".","_","_",".",".",".",".",".",".","."],[".",14,".",".","_",12,".",12,"/",14,".",".","_","_",".",".",".",".",".",".","."],[13,".",13,11,"_",".",".",".",".",".",13,"b","_","_",11,".",16,".",14,".",13],[".",".",".",".","_",".",".",".",".",".",".",".","_","_",".",".",".",".",".",".","."],[11,".",".",9,"_",".",".",".",".",".",".",".","_","_",9,".",14,".",12,".",11],[".",".",".",".","_",".",".",".",".",".",".",".","_","_",".",".",".",".",".",".","."]],[[".",".","_",".","_",".","_",5,"_","_"],[".",".","_",".","_",5,"_",5,"_","_"],[".",9,"_",9,"_",6,"_",6,"_","_"],[".",9,"_",9,"_",6,"_",7,"_","_"],[".",7,"_",6,"_",4,"_",7,"_","_"],[".",0,"_",0,"_",".","_",5,"_","_"]],[["_",".","_",".","_",".","_",".","_",7],["_",".","_",".","_",5,"_",9,"_",7],["_",9,"_",9,"_",6,"_",9,"_",8],["_",9,"_",9,"_",6,"_",9,"_",9],["_",7,"_",6,"_",4,"_",7,"_",9],["_",0,"_",0,"_",".","_",0,"_",7]],[[".",".",".","."],[".",".",".","."],[".",9,".","."],[".",".",6,"b"],[7,".",".","."],[".",".",".","."]]],"numberofstrings":6,"notes":["DsEb","AsBb","FsGb","CsDb","GsAb","DsEb"],"capo":0,"stringnotes":["Eb3","Bb2","Gb2","Db2","Ab1","Eb1"],"comments":["INTRO: Play twice and slide down to each chord. ONLY PLAY LAST CHORD AFTER FIRST TIME THROUGH","(Lead Guitar, Nick) INTRO PART 2 with 2nd guitar, Play (2x)","INTRO PART 2 (Rhythm Guitar, Clayton) With Analog Delay, Play (2x)","VERSE 1 Both Guitars, Play (2x)","CHORUS 1, Both Guitars","VERSE 2, same as verse 1, both guitars","CHORUS 2, Lead Guitar, half of it is same as Chorus 1, then there is the alternative part that is played. ","CHORUS 2, Rhythm Guitar, don't know why last chord looks different :/","END OF CHORUS 2, end on this chord and slide down","BRIDGE PART 1, Lead Guitar, Slide down each chord, Same as intro but you play the 9,11,12 chord without repeating, then playing it. (Lyrics, it was time this whole time, ect.)","BRIDGE PART 1, Rhythm Guitar, Slightly different as intro","BRIDGE PART 2, Lead Guitar, same as bridge part 1 (Lyrics: Just a simple conversation, ect.) ","BRIDGE PART 2, Rhythm Guitar, same as bridge part 1, with an additional note","CHORUS 3/ OUTRO, both guitars, same as Rhythm guitar Chorus 2 PLAY (3x)","CHORUS 3/ OUTRO Slightly different riff, play (1x)","ENDING NOTES!!"],"timing":[["W",null,"W","W","W","W","W",null,null,"W"],["W","W","W","W",null,"W","W",null,null,"W"],["W","W","W","W"],["W","W","W","W",null,null,"W",null,"W"],["W","W","W","W",null,"W","W","W","W",null,"W","W","W","W","W","W","W","W","W","W"],["W","W","W",null,"W",null,"W","W","W","W"],["W","W","W","W",null,"W","W","W","W",null,"W","W","W",null,"W","W","W","W","W","W",null,"W","W","W",null,"W","W","W","W","W","W","W","W","W"],["W","W",null,"W","W","W","W","W","W","W",null,null,null,"W",null,null,null,null,null,null,null,null,"W",null,null,null,"W","W",null,null,"W","W",null,null,"W"],["W","W"],["W",null,"W","W",null,"W","W",null,"W","W",null,"W",null,"W","W",null,"W","W","W","W"],["W","W",null,null,null,"W","W","W","W","W","W","W","W","W","W","W","W",null,"W","W","W","W"],[],["W","W","W","W",null,"W","W","W","W","W",null,null,null,"W","W","W","W","W"],[null,"W",null,"W",null,"W",null,"W",null,null,"W",null,"W",null,"W"],["W","W",null,"W","W","W",null,"W",null,"W"],["W","W","W","W"]],"timingvisible":false,"tabcounter":4,"stave":14,"totalstaves":16,"instrument":"6guitar","selectedtuning":"Half Step Down","version":"13"}

Member for

5 months 2 weeks
Submitted by kjwtabs2000 on Thu, 2020-08-06 15:55