Come Heroin - Touché Amoré

Chords

01234567891011121314151617181920212223
E
B
G
D
A
E
B
0 1 2 3 4 5 6 7 8 9 10 11 12 13 14 15 16 17 18 19 20 21 22 23
(/) Slide Up  (\) Slide Down  (h) Hammer On  (p) Pull Off  (b) Bend (r) Release (v) Vibrato

Stave 1:

Eb|-----------------------------------------------------
Bb|-----------------------------------------------------
Gb|--4-----6-----7--------4-----6-----7--------4-----6--
Db|-----------------------------------------------------
Ab|--5-----7-----9--------5-----7-----9--------5-----7--
Db|--5-----7-----9--------5-----7-----9--------5-----7--

Stave 2:

Eb|---------------------
Bb|-----7-----8-----10--
Gb|-----7-----7-----7---
Db|-----0-----0-----0---
Ab|-----0-----0-----0---
Db|-----0-----0-----0---

							http://www.guitartabcreator.com
Instruments
{"strings":[[[".","_",".","_",".","_","_",".","_",".","_",".","_","_",".","_","."],[".","_",".","_",".","_","_",".","_",".","_",".","_","_",".","_","."],[4,"_",6,"_",7,"_","_",4,"_",6,"_",7,"_","_",4,"_",6],[".","_",".","_",".","_","_",".","_",".","_",".","_","_",".","_","."],[5,"_",7,"_",9,"_","_",5,"_",7,"_",9,"_","_",5,"_",7],[5,"_",7,"_",9,"_","_",5,"_",7,"_",9,"_","_",5,"_",7]],[["_",".","_",".","_","."],["_",7,"_",8,"_",10],["_",7,"_",7,"_",7],["_",0,"_",0,"_",0],["_",0,"_",0,"_",0],["_",0,"_",0,"_",0]]],"numberofstrings":6,"notes":["DsEb","AsBb","FsGb","CsDb","GsAb","CsDb"],"capo":0,"stringnotes":["Eb3","Bb2","Gb2","Db2","Ab1","Db1"],"comments":["Stave 1:","Stave 2:","Stave 3:"],"timing":[["W",null,"W",null,"W",null,null,"W","W","W",null,"W",null,null,"W",null,"W"],["W",null,"W"],["W","W",null,"W",null,"W"]],"timingvisible":false,"tabcounter":16,"stave":0,"totalstaves":2,"instrument":"6guitar","selectedtuning":"Drop C#","version":"13"}

Member for

3 months 3 weeks
Submitted by kjwtabs2000 on Fri, 2020-10-23 20:58