Sound will begin in 5 seconds

Jesus Is His Name - Rhythm

01234567891011121314151617181920212223
E
B
G
D
A
E
B
0 1 2 3 4 5 6 7 8 9 10 11 12 13 14 15 16 17 18 19 20 21 22 23
Song Science #1: How Pros Use 6 Chords to Write Hit Songs
(/) Slide Up  (\) Slide Down  (h) Hammer On  (p) Pull Off  (b) Bend (r) Release (v) Vibrato

Stave 1:

E|----------------------------------|-----------------------------------|-----
B|--9--12\9--12\9--9--10--9---------|--9--12\9--12------12--12--12--12--|-----
G|---------------------------11--9--|---------------11--11--11--11--11--|-----
D|----------------------------------|-----------------------------------|-----
A|----------------------------------|-----------------------------------|-----
E|----------------------------------|-----------------------------------|-----

Stave 2:

E|-------|--------|--------|-----|--
B|--5-----|--9-----|--5-----|-----|--
G|--6--6--|--9--8--|--6--6--|--8--|--
D|--6--7--|--9--9--|--6--7--|--9--|--
A|--4--7--|--7--9--|--4--7--|--9--|--
E|----5--|-----7--|-----5--|--7--|--

Stave 3:

E|----------------------------|--------------------------|--
B|----------------------------|--------------------------|--
G|----6--6--6--6--9--9--9--9--|--8--8--8--8--9---9---9---|--
D|----7--7--7--7--9--9--9--9--|--9--9--9--9--11--11--11--|--
A|----------------------------|--------------------------|--
E|----------------------------|--------------------------|--

Stave 4:

E|-------------------------|--------------------------|--
B|-------------------------|--------------------------|--
G|--6--6--6--6--9--9--9--9--|--8--8--8--8--8--8--8--8--|--
D|--7--7--7--7--9--9--9--9--|--9--9--9--9--9--9--9--9--|--
A|-------------------------|--------------------------|--
E|-------------------------|--------------------------|--

Stave 5:

E|------------------------|------------------|--12--12--12--12--|--14--14--14--14--|--
B|--5/12--12--12--12--12--|--14--14--14--14--|------------------|------------------|--
G|------------------------|------------------|------------------|------------------|--
D|------------------------|------------------|------------------|------------------|--
A|------------------------|------------------|------------------|------------------|--
E|------------------------|------------------|------------------|------------------|--

Stave 6:

E|----------------|--------------|------------------|--------------|--
B|----------------|--------------|------------------|--------------|--
G|----9--9--9--9--|--9--9--9--9--|------------------|--------------|--
D|----9--9--9--9--|--9--9--9--9--|--11--11--11--11--|--9--9--9--9--|--
A|----7--7--7--7--|--7--7--7--7--|--11--11--11--11--|--9--9--9--9--|--
E|----0--0--0--0--|--0--0--0--0--|--9---9---9---9---|--7--7--7--7--|--

Stave 7:

E|----------------|--------------|--------------|--------------|--
B|----------------|--------------|--------------|--------------|--
G|----9--9--9--9--|--9--9--9--9--|--9--9--9--9--|--9--9--8--8--|--
D|----9--9--9--9--|--9--9--9--9--|--9--9--9--9--|--9--9--9--9--|--
A|----7--7--7--7--|--7--7--7--7--|--7--7--7--7--|--7--7--9--9--|--
E|----0--0--0--0--|--0--0--0--0--|--0--0--0--0--|--0--0--7--7--|--

Stave 8:

E|---------------|--------------|--------------|--------------|--
B|---------------|--------------|--------------|--------------|--
G|---------------|--------------|--------------|--------------|--
D|--4--4----7--7--|--9-----------|--9--9--9--9--|--2--2--2--2--|--
A|--4--4----7--7--|--9-----------|--9--9--9--9--|--2--2--2--2--|--
E|--2--2----5--5--|--7--5--4--5--|--7--7--7--7--|--0--0--0--0--|--

Stave 9:

E|--16--16--16--16--|--17--17--17--17--|--
B|------------------|------------------|--
G|------------------|------------------|--
D|------------------|------------------|--
A|------------------|------------------|--
E|------------------|------------------|--

Stave 10:

E|-----------|-----------|-----------|--------------|------
B|--9--------|-----------|--9--------|--7--7--7--7--|--12--
G|-----6--9--|-----9--8--|-----6--9--|--8--8--8--8--|--8---
D|-----------|--9-----9--|-----------|--------------|------
A|-----------|-----------|-----------|--------------|------
E|-----------|-----------|-----------|--------------|------

Stave 11:

E|-------------7-----|--------------|-----------7-----
B|----9--7-----------|--------------|--9--7-----------
G|----------9-----8--|--9--8--9--8--|--------9-----6--
D|-------------------|--------------|-----------------
A|-------------------|--------------|-----------------
E|-------------------|--------------|-----------------

Stave 12:

E|--------------|------------------|--------------|------------------|--
B|--------------|------------------|--9--9--9--9--|--10--10--10--10--|--
G|--9--9--9--9--|--11--11--11--11--|--------------|------------------|--
D|--------------|------------------|--------------|------------------|--
A|--------------|------------------|--------------|------------------|--
E|--------------|------------------|--------------|------------------|--

Stave 13:

E|------------------|--11--11--11--11--|--12--12--12--12--|--12--12--12--12--
B|--12--12--12--12--|------------------|------------------|------------------
G|------------------|------------------|------------------|------------------
D|------------------|------------------|------------------|------------------
A|------------------|------------------|------------------|------------------
E|------------------|------------------|------------------|------------------

http://www.guitartabcreator.com
Guitar Tab Creator is intended to store guitar tab created through the tool. It currently does not support in-line text editing. Any text you place in here will be lost. If you need to comment on your tab, please use the "Tab Notes" section located below.