Sound will begin in 5 seconds

In the Highest - Lead

01234567891011121314151617181920212223
E
B
G
D
A
E
B
0 1 2 3 4 5 6 7 8 9 10 11 12 13 14 15 16 17 18 19 20 21 22 23
Song Science #1: How Pros Use 6 Chords to Write Hit Songs
(/) Slide Up  (\) Slide Down  (h) Hammer On  (p) Pull Off  (b) Bend (r) Release (v) Vibrato

Stave 1:

E|------|-----|------|---------|--
B|--10--|-----|--15--|--10-----|--
G|--11--|--9--|------|------9--|--
D|------|-----|------|---------|--
A|------|-----|------|---------|--
E|------|-----|------|---------|--

Stave 2:

E|--0-----------|--------------|--2----3-----2--|--2--2--2--|--
B|--3-----3--3--|--3-----2--3--|--3-------3-----|--3--3--3--|--
G|--2--4-----2--|--2--2--------|--2-------------|--2--0--2--|--
D|--0--------0--|--4-----------|--0-------------|--0--0--0--|--
A|-------------|--2-----------|----------------|--0--0-----|--
E|-------------|--------------|----------------|-----------|--

Stave 3:

E|----7--------|--7-----|--2-------------|--2--------|--
B|-------8--7--|--8--7--|--3-----3-------|--3--5--3--|--
G|-------------|--7--7--|--2--4-----0h2--|--2--------|--
D|-------------|--------|--0-------------|--0--------|--
A|-------------|--------|----------------|-----------|--
E|-------------|--------|----------------|-----------|--

Stave 4:

E|-----------|-----3--2--0--0--|--
B|-----5--7--|--3--3-----3-----|--
G|--4--6--7--|--4--------2-----|--
D|-----------|-----------------|--
A|-----------|-----------------|--
E|-----------|-----------------|--

Stave 5:

E|--2--|--3--|--2--------|-----|-----|-----|-----|-----|--
B|--3--|--3--|-----3--5--|--3--|-----|--7--|-----|-----|--
G|--2--|--0--|-----------|--4--|--4--|--7--|--7--|--6--|--
D|--4--|--0--|-----------|--4--|--5--|--7--|--7--|--7--|--
A|--2--|--2--|-----------|--2--|--5--|--5--|--7--|--7--|--
E|----|--3--|-----------|-----|--3--|-----|--5--|--5--|--

Stave 6:

E|--2--|--3--|--5--|--5--|--
B|--3--|--3--|--3--|--3--|--
G|--2--|--0--|--2--|--2--|--
D|--4--|--0--|--0--|--0--|--
A|--2--|--2--|-----|-----|--
E|----|--3--|-----|-----|--

http://www.guitartabcreator.com
Guitar Tab Creator is intended to store guitar tab created through the tool. It currently does not support in-line text editing. Any text you place in here will be lost. If you need to comment on your tab, please use the "Tab Notes" section located below.