Sound will begin in 5 seconds

Cross Fire guitar

01234567891011121314151617181920212223
E
B
G
D
A
E
B
0 1 2 3 4 5 6 7 8 9 10 11 12 13 14 15 16 17 18 19 20 21 22 23
Song Science #1: How Pros Use 6 Chords to Write Hit Songs
(/) Slide Up  (\) Slide Down  (h) Hammer On  (p) Pull Off  (b) Bend (r) Release (v) Vibrato

Stave 1:

E|--------1--3--1--------------------------
B|--1--4-----------4--1--4--1--4--1--4--3--
G|-----------------------------------------
D|-----------------------------------------
A|-----------------------------------------
E|-----------------------------------------

Stave 2:

E|-----3--1-----1--1-----------3--1-----1--1--------
B|--1--------4--------1--4--1--------4--------1--4--
G|--------------------------------------------------
D|--------------------------------------------------
A|--------------------------------------------------
E|--------------------------------------------------

Stave 3:

E|--------1--3-----------1--------1--3-----------1--
B|--1--4--------1--1--4-----1--4--------1--1--4-----
G|--------------------------------------------------
D|--------------------------------------------------
A|--------------------------------------------------
E|--------------------------------------------------

Stave 4:

E|-----3--1-----1--1-----------3--1-----1--1--------
B|--4--------4--------1--4--1--------4--------1--4--
G|--------------------------------------------------
D|--------------------------------------------------
A|--------------------------------------------------
E|--------------------------------------------------

Stave 5:

E|-----------1--3--------1--------1--3--1--6--4--4--3--4--3--
B|--1--1--4--------1--4-----1--4-----------------------------
G|-----------------------------------------------------------
D|-----------------------------------------------------------
A|-----------------------------------------------------------
E|-----------------------------------------------------------

Stave 6:

E|--3--3--6--4--3--1-----1-----1--4--3--1--3--
B|--------------------4-----4-----------------
G|--------------------------------------------
D|--------------------------------------------
A|--------------------------------------------
E|--------------------------------------------

Stave 7:

E|--3--6--4--3--1-----1-----1--4--3--1--3--
B|-----------------4-----4-----------------
G|-----------------------------------------
D|-----------------------------------------
A|-----------------------------------------
E|-----------------------------------------

Stave 8:

E|--------1--3-----------------6--4--4--3--4--3--
B|--1--4--------1--4--1--1--1--------------------
G|-----------------------------------------------
D|-----------------------------------------------
A|-----------------------------------------------
E|-----------------------------------------------

Stave 9:

E|--------1--3--------------------------------------
B|--1--4--------1--4--1--1--1--1--------------------
G|--------------------------------3--3--1--1--1--0--
D|--------------------------------------------------
A|--------------------------------------------------
E|--------------------------------------------------

Stave 10:

E|-----3--1--1-----3--1--1-----1-----1-----3--------------1--3-----------------
B|--4-----------4-----------4-----4-----4-----1--1--1--4--------1--4--1--------
G|-----------------------------------------------------------------------1--0--
D|-----------------------------------------------------------------------------
A|-----------------------------------------------------------------------------
E|-----------------------------------------------------------------------------

http://www.guitartabcreator.com
Guitar Tab Creator is intended to store guitar tab created through the tool. It currently does not support in-line text editing. Any text you place in here will be lost. If you need to comment on your tab, please use the "Tab Notes" section located below.