Sound will begin in 5 seconds

SAVIOUR

Chords
01234567891011121314151617181920212223
E
B
G
D
A
E
B
0 1 2 3 4 5 6 7 8 9 10 11 12 13 14 15 16 17 18 19 20 21 22 23
Song Science #1: How Pros Use 6 Chords to Write Hit Songs
(/) Slide Up  (\) Slide Down  (h) Hammer On  (p) Pull Off  (b) Bend (r) Release (v) Vibrato

Stave 1:

E|-------------
B|-------------
G|-------------
D|--9----------
A|--10--9---7--
E|------10--8--

Stave 2:

E|-----------
B|-----------
G|-----------
D|-----4--2--
A|--2--5--3--
E|--3--------

Stave 3:

E|-------------
B|-------------
G|-------------
D|--9----------
A|--10--9---7--
E|------10--8--

Stave 4:

E|--10--10--8--
B|--10--10--8--
G|-------------
D|--9----------
A|--10--9---7--
E|------10--8--

Stave 5:

E|--3--5--3--
B|--3--5--3--
G|-----------
D|-----4--2--
A|--2--5--3--
E|--3--------

Stave 6:

E|-----3-----3-----5-----5-----3-----3-----3-----3--
B|--3-----3-----5-----5-----3-----3-----3-----3-----
G|--------------------------------------------------
D|--------------------------------------------------
A|--------------------------------------------------
E|--------------------------------------------------

Stave 7:

E|-----10-----10-----8-----8-----7-----7-----7-----7--
B|--8------8------8-----8-----8-----8-----8-----8-----
G|----------------------------------------------------
D|----------------------------------------------------
A|----------------------------------------------------
E|----------------------------------------------------

Stave 8:

E|--12--12--12--10\8--7--8--7\5--3--
B|----------------------------------
G|----------------------------------
D|----------------------------------
A|----------------------------------
E|----------------------------------

Stave 9:

E|-------5\3-------5\3--
B|--3/5-------3/5-------
G|----------------------
D|----------------------
A|----------------------
E|----------------------

http://www.guitartabcreator.com
Guitar Tab Creator is intended to store guitar tab created through the tool. It currently does not support in-line text editing. Any text you place in here will be lost. If you need to comment on your tab, please use the "Tab Notes" section located below.