Kaylees song

01234567891011121314151617181920212223
E
B
G
D
A
E
B
0 1 2 3 4 5 6 7 8 9 10 11 12 13 14 15 16 17 18 19 20 21 22 23
(/) Slide Up  (\) Slide Down  (h) Hammer On  (p) Pull Off  (b) Bend (r) Release (v) Vibrato

Stave 1:

E|------------------------------------------------------5--------3--------3--2--2--3--------5--------7-----------------------5-----5-----7p\5--
B|--------1-----------3------------------------------------0--------0-----------------0--------0--------0-----0-----0-----0-----0-----0--------
G|-----2-----2-----4-----4------------------------------------0--------0-----------------0--------0--------0-----------0-----------------------
D|-----------------------------0--3/4--0-----0--1/2--0--4--------2--------2-----1--2--------4--------5-----------5-----------0-----------------
A|--0-----------3-----------5-------------3----------------------------------------------------------------------------------------------------
E|---------------------------------------------------------------------------------------------------------------------------------------------

Stave 2:

E|--5p3p0-----------0--0h2--0----------------------
B|---------3-----3-------------2--3--2--0--0h2--0--
G|------------2------------------------------------
D|-------------------------------------------------
A|-------------------------------------------------
E|-------------------------------------------------

Stave 3:

E|--0--
B|-----
G|-----
D|-----
A|-----
E|-----

							http://www.guitartabcreator.com
Chords

Instruments
{"strings":[[[".",".",".",".",".",".",".",".",".",".",".",".",".",".",".",".",".",".",".",".",5,".",".",3,".",".",3,2,2,3,".",".",5,".",".",7,".",".",".",".",".",".",".",5,".",5,".",7,"p","\\",5],[".",".",1,".",".",".",3,".",".",".",".",".",".",".",".",".",".",".",".",".",".",0,".",".",0,".",".",".",".",".",0,".",".",0,".",".",0,".",0,".",0,".",0,".",0,".",0,".",".",".","."],[".",2,".",2,".",4,".",4,".",".",".",".",".",".",".",".",".",".",".",".",".",".",0,".",".",0,".",".",".",".",".",0,".",".",0,".",".",0,".",".",".",0,".",".",".",".",".",".",".",".","."],[".",".",".",".",".",".",".",".",".",0,3,"/",4,0,".",0,1,"/",2,0,4,".",".",2,".",".",2,".",1,2,".",".",4,".",".",5,".",".",".",5,".",".",".",0,".",".",".",".",".",".","."],[0,".",".",".",3,".",".",".",5,".",".",".",".",".",3,".",".",".",".",".",".",".",".",".",".",".",".",".",".",".",".",".",".",".",".",".",".",".",".",".",".",".",".",".",".",".",".",".",".",".","."],[".",".",".",".",".",".",".",".",".",".",".",".",".",".",".",".",".",".",".",".",".",".",".",".",".",".",".",".",".",".",".",".",".",".",".",".",".",".",".",".",".",".",".",".",".",".",".",".",".",".","."]],[[5,"p",3,"p",0,".",".",".",0,0,"h",2,0,".",".",".",".",".",".",".","."],[".",".",".",".",".",3,".",3,".",".",".",".",".",2,3,2,0,0,"h",2,0],[".",".",".",".",".",".",2,".",".",".",".",".",".",".",".",".",".",".",".",".","."],[".",".",".",".",".",".",".",".",".",".",".",".",".",".",".",".",".",".",".",".","."],[".",".",".",".",".",".",".",".",".",".",".",".",".",".",".",".",".",".",".",".","."],[".",".",".",".",".",".",".",".",".",".",".",".",".",".",".",".",".",".",".",".","."]],[[0],["."],["."],["."],["."],["."]]],"numberofstrings":6,"notes":["E","B","G","D","A","E","B"],"capo":0,"stringnotes":["E4","B3","G3","D3","A2","E2"],"comments":["Stave 1:","Stave 2:","Stave 3:"],"timing":[["W","W","W","W","W","W","W","W","W","W","W",null,"W","W","W","W","W","W","W","W","W","W","W","W","W","W","W","W","W","W","W","W","W","W","W","W","W","W","W","W","W","W","W","W","W","W","W","W",null,"W","W"],["W",null,"W",null,"W","W","W","W","W","W",null,"W","W","W","W","W","W","W",null,"W","W"],["W"]],"timingvisible":false,"tabcounter":0,"stave":2,"totalstaves":3,"instrument":"6guitar","selectedtuning":"6_standard","version":"13"}

Member for

1 month 3 weeks
Submitted by king99 on Mon, 2020-11-30 18:55