Sound will begin in 5 seconds

attempt at violin #1

01234567891011121314151617181920212223
E
B
G
D
A
E
B
0 1 2 3 4 5 6 7 8 9 10 11 12 13 14 15 16 17 18 19 20 21 22 23
Song Science #1: How Pros Use 6 Chords to Write Hit Songs
(/) Slide Up  (\) Slide Down  (h) Hammer On  (p) Pull Off  (b) Bend (r) Release (v) Vibrato

Stave 1:

E|---------------------------12------------------------12------------------------8--------------------------
B|--------------5-----5--12---------12------------------------12-----------------------8--------------------
G|-----------4-----4-------------9---------9---------------9---------9--------------9---------11------------
D|--2-----2-----------------------------9--------9----------------9--------9--------------10------7--10-----
A|-----2--------------------------------------7-------------------------7-----------------------------------
E|--------------------------------------------------7-------------------------7--------------------------8--

Stave 2:

E|--7---------------------------------------------------------------------
B|--------7------------------10---------------7--8------------------------
G|-----7--------9--------------------9--------------9--9p11--8--9--11-----
D|-----------9---------9---------10-----7--9---------------------------9--
A|-----------------10-----------------------------------------------------
E|------------------------8-----------------------------------------------

Stave 3:

E|------12--10------10--12--15--14--12--10----------10-----------------------------------9--11------12-----8--
B|--12----------13--------------------------10--12----------------------------------------------12------------
G|------------------------------------------------------12--11--9--12----------------11-----------------9-----
D|---------------------------------------------------------------------10--9--8--11---------------------------
A|------------------------------------------------------------------------------------------------------------
E|------------------------------------------------------------------------------------------------------------

Stave 4:

E|---------12--19--0--7--------
B|-----10-------------------5--
G|-----------------------4-----
D|--7--------------------------
A|-----------------------------
E|-----------------------------

http://www.guitartabcreator.com
Guitar Tab Creator is intended to store guitar tab created through the tool. It currently does not support in-line text editing. Any text you place in here will be lost. If you need to comment on your tab, please use the "Tab Notes" section located below.