Beautiful Birds

01234567891011121314151617181920212223
E
B
G
D
A
E
B
0 1 2 3 4 5 6 7 8 9 10 11 12 13 14 15 16 17 18 19 20 21 22 23
(/) Slide Up  (\) Slide Down  (h) Hammer On  (p) Pull Off  (b) Bend (r) Release (v) Vibrato

Capo Fret 6

Stave 1:

E|--3--2-----0--|--------------|--------------|--------------|--3--2-----0--|--------------|-----------3--|--2-----------
B|--------3-----|--------3-----|--------------|--------------|--------3-----|--------3-----|--------3-----|--------------
G|--------------|-----0-----2--|-----0--2--4--|--------2--0--|--------------|-----0-----2--|-----2--------|--------2-----
D|--0-----------|--------------|--0-----------|-----0--------|--------------|--------------|--0-----------|-----0-----0--
A|--0-----------|--3-----------|--------------|--------------|--------------|--3-----------|--------------|--------------
E|--0-----------|--------------|--------------|--3-----------|--0-----------|--------------|--------------|--------------

Stave 2:

E|--3--2-----0--|--------------|--------------|--------------|----------------|-------------|----------------|-----------|--
B|--------3-----|--------3-----|--------------|--------------|----------------|-------------|-----------0h2--|--------0--|--
G|--------------|-----0-----2--|-----0--2--4--|--------2--0--|----------0-----|--2h4--2--0--|-----0----------|--0-----0--|--
D|--0-----------|--------------|--0-----------|-----0--------|-----0h2-----2--|--0----------|--2--------0-2--|-----2--0--|--
A|--0-----------|--3-----------|--------------|--------------|--3-------------|-------------|----------------|-----------|--
E|--0-----------|--------------|--------------|--3-----------|----------------|-------------|--------3-------|--------3--|--

Stave 3:

E|--------------|--------------|--------------|--------------|--------------|--------------|--------------------------
B|--------0-----|--------1-----|--------3-----|--------0-----|--------0-----|--------1-----|--------------1-----------
G|-----------0--|-----------0--|-----------0--|-----------0--|-----------0--|-----------0--|--------0-----------0-----
D|-----2--------|-----2--------|-----4--------|-----0--------|-----2--------|-----2--------|-----4-----4-----4-----4--
A|--------------|--3-----------|--5-----------|--------------|--------------|--3-----------|--5-----------------------
E|--0-----------|--------------|--------------|--3-----------|--0-----------|--------------|--------------------------

Stave 4:

E|--------------|--------------|--------------|--------------|--------------------------|-----------3--2-----------
B|--------0-----|--------1-----|--------3-----|--------0-----|--------------1-----------|--------1-----------------
G|-----------0--|-----------0--|-----------0--|-----------0--|--------0-----------0-----|-----2--------------2-----
D|-----2--------|-----2--------|-----4--------|-----0--------|-----2-----2-----2-----0--|--0--------------0-----0--
A|--------------|--3-----------|--5-----------|--------------|--0-----------------------|--------------------------
E|--0-----------|--------------|--------------|--3-----------|--------------------------|--------------------------

Stave 5:

E|--3--2-----0--|--------------|--------------|--------------|--------------|--------------|--------------------------
B|--------3-----|--------3-----|--------3-----|--------0-----|--------0-----|--------1-----|--------------1-----------
G|--------------|-----0-----2--|-----2-----2--|-----------0--|-----------0--|-----------0--|--------0-----------0-----
D|--0-----------|--------------|--0-----------|-----0--------|-----2--------|-----2--------|-----4-----4-----4-----4--
A|--0-----------|--3-----------|--------------|--------------|--------------|--3-----------|--5-----------------------
E|--0-----------|--------------|--------------|--3-----------|--0-----------|--------------|--------------------------

Stave 6:

E|--------------|--------------|--------------|--------------|--------------|--------------|----------------------------
B|--------0-----|--------1-----|--------3-----|--------0-----|--------1-----|--------3-----|-----0h2--------0-----------
G|-----------0--|-----------0--|-----------0--|-----------0--|-----------0--|-----------0--|----------0-----------0-----
D|-----2--------|-----2--------|-----4--------|-----0--------|-----2--------|-----4--------|-----0-2-----2-----0-----0--
A|--------------|--3-----------|--5-----------|--------------|--3-----------|--5-----------|----------------------------
E|--0-----------|--------------|--------------|--3-----------|--------------|--------------|--3-------------3-----------

Stave 7:

E|--3--2-----0--|--------------|--------------|--------------|--3--2-----0--|--------------|-----------3--|--2-----------
B|--------3-----|--------3-----|--------------|--------------|--------3-----|--------3-----|--------3-----|--------------
G|--------------|-----0-----2--|-----0--2--4--|--------2--0--|--------------|-----0-----2--|-----2--------|--------2-----
D|--0-----------|--------------|--0-----------|-----0--------|--------------|--------------|--0-----------|-----0-----0--
A|--0-----------|--3-----------|--------------|--------------|--------------|--3-----------|--------------|--------------
E|--0-----------|--------------|--------------|--3-----------|--0-----------|--------------|--------------|--------------

Stave 8:

E|--7--5--3--0--|--------3--2--|--------------|-----------0--|--------------|----------------|-------------------
B|--------------|--------------|--------3--0--|--------3-----|--------3-----|----------------|-----0h2--------0--
G|--------------|-----0--------|-----2--------|-----0--------|-----0-----2--|-----2h4-----0--|----------0-----0--
D|--0-----------|--------------|--0-----------|--------------|--------------|--0-------0-----|-----0-2-----2--0--
A|--0-----------|--3-----------|--------------|--------------|--3-----------|----------------|-------------------
E|--0-----------|--------------|--------------|--3-----------|--------------|----------------|--3-------------3--

							http://www.guitartabcreator.com
Chords

Instruments
{"strings":[[[3,2,".",0,"|",".",".",".",".","|",".",".",".",".","|",".",".",".",".","|",3,2,".",0,"|",".",".",".",".","|",".",".",".",3,"|",2,".",".","."],[".",".",3,".","|",".",".",3,".","|",".",".",".",".","|",".",".",".",".","|",".",".",3,".","|",".",".",3,".","|",".",".",3,".","|",".",".",".","."],[".",".",".",".","|",".",0,".",2,"|",".",0,2,4,"|",".",".",2,0,"|",".",".",".",".","|",".",0,".",2,"|",".",2,".",".","|",".",".",2,"."],[0,".",".",".","|",".",".",".",".","|",0,".",".",".","|",".",0,".",".","|",".",".",".",".","|",".",".",".",".","|",0,".",".",".","|",".",0,".",0],[0,".",".",".","|",3,".",".",".","|",".",".",".",".","|",".",".",".",".","|",".",".",".",".","|",3,".",".",".","|",".",".",".",".","|",".",".",".","."],[0,".",".",".","|",".",".",".",".","|",".",".",".",".","|",3,".",".",".","|",0,".",".",".","|",".",".",".",".","|",".",".",".",".","|",".",".",".","."]],[[3,2,".",0,"|",".",".",".",".","|",".",".",".",".","|",".",".",".",".","|",".",".",".",".",".",".","|",".",".",".",".",".","|",".",".",".",".",".",".","|",".",".",".","|"],[".",".",3,".","|",".",".",3,".","|",".",".",".",".","|",".",".",".",".","|",".",".",".",".",".",".","|",".",".",".",".",".","|",".",".",".",0,"h",2,"|",".",".",0,"|"],[".",".",".",".","|",".",0,".",2,"|",".",0,2,4,"|",".",".",2,0,"|",".",".",".",".",0,".","|",2,"h",4,2,0,"|",".",0,".",".",".",".","|",0,".",0,"|"],[0,".",".",".","|",".",".",".",".","|",0,".",".",".","|",".",0,".",".","|",".",0,"h",2,".",2,"|",0,".",".",".",".","|",2,".",".",0,".",2,"|",".",2,0,"|"],[0,".",".",".","|",3,".",".",".","|",".",".",".",".","|",".",".",".",".","|",3,".",".",".",".",".","|",".",".",".",".",".","|",".",".",".",".",".",".","|",".",".",".","|"],[0,".",".",".","|",".",".",".",".","|",".",".",".",".","|",3,".",".",".","|",".",".",".",".",".",".","|",".",".",".",".",".","|",".",".",3,".",".",".","|",".",".",3,"|"]],[[".",".",".",".","|",".",".",".",".","|",".",".",".",".","|",".",".",".",".","|",".",".",".",".","|",".",".",".",".","|",".",".",".",".",".",".",".","."],[".",".",0,".","|",".",".",1,".","|",".",".",3,".","|",".",".",0,".","|",".",".",0,".","|",".",".",1,".","|",".",".",".",".",1,".",".","."],[".",".",".",0,"|",".",".",".",0,"|",".",".",".",0,"|",".",".",".",0,"|",".",".",".",0,"|",".",".",".",0,"|",".",".",0,".",".",".",0,"."],[".",2,".",".","|",".",2,".",".","|",".",4,".",".","|",".",0,".",".","|",".",2,".",".","|",".",2,".",".","|",".",4,".",4,".",4,".",4],[".",".",".",".","|",3,".",".",".","|",5,".",".",".","|",".",".",".",".","|",".",".",".",".","|",3,".",".",".","|",5,".",".",".",".",".",".","."],[0,".",".",".","|",".",".",".",".","|",".",".",".",".","|",3,".",".",".","|",0,".",".",".","|",".",".",".",".","|",".",".",".",".",".",".",".","."]],[[".",".",".",".","|",".",".",".",".","|",".",".",".",".","|",".",".",".",".","|",".",".",".",".",".",".",".",".","|",".",".",".",3,2,".",".","."],[".",".",0,".","|",".",".",1,".","|",".",".",3,".","|",".",".",0,".","|",".",".",".",".",1,".",".",".","|",".",".",1,".",".",".",".","."],[".",".",".",0,"|",".",".",".",0,"|",".",".",".",0,"|",".",".",".",0,"|",".",".",0,".",".",".",0,".","|",".",2,".",".",".",".",2,"."],[".",2,".",".","|",".",2,".",".","|",".",4,".",".","|",".",0,".",".","|",".",2,".",2,".",2,".",0,"|",0,".",".",".",".",0,".",0],[".",".",".",".","|",3,".",".",".","|",5,".",".",".","|",".",".",".",".","|",0,".",".",".",".",".",".",".","|",".",".",".",".",".",".",".","."],[0,".",".",".","|",".",".",".",".","|",".",".",".",".","|",3,".",".",".","|",".",".",".",".",".",".",".",".","|",".",".",".",".",".",".",".","."]],[[3,2,".",0,"|",".",".",".",".","|",".",".",".",".","|",".",".",".",".","|",".",".",".",".","|",".",".",".",".","|",".",".",".",".",".",".",".","."],[".",".",3,".","|",".",".",3,".","|",".",".",3,".","|",".",".",0,".","|",".",".",0,".","|",".",".",1,".","|",".",".",".",".",1,".",".","."],[".",".",".",".","|",".",0,".",2,"|",".",2,".",2,"|",".",".",".",0,"|",".",".",".",0,"|",".",".",".",0,"|",".",".",0,".",".",".",0,"."],[0,".",".",".","|",".",".",".",".","|",0,".",".",".","|",".",0,".",".","|",".",2,".",".","|",".",2,".",".","|",".",4,".",4,".",4,".",4],[0,".",".",".","|",3,".",".",".","|",".",".",".",".","|",".",".",".",".","|",".",".",".",".","|",3,".",".",".","|",5,".",".",".",".",".",".","."],[0,".",".",".","|",".",".",".",".","|",".",".",".",".","|",3,".",".",".","|",0,".",".",".","|",".",".",".",".","|",".",".",".",".",".",".",".","."]],[[".",".",".",".","|",".",".",".",".","|",".",".",".",".","|",".",".",".",".","|",".",".",".",".","|",".",".",".",".","|",".",".",".",".",".",".",".",".",".","."],[".",".",0,".","|",".",".",1,".","|",".",".",3,".","|",".",".",0,".","|",".",".",1,".","|",".",".",3,".","|",".",0,"h",2,".",".",0,".",".","."],[".",".",".",0,"|",".",".",".",0,"|",".",".",".",0,"|",".",".",".",0,"|",".",".",".",0,"|",".",".",".",0,"|",".",".",".",".",0,".",".",".",0,"."],[".",2,".",".","|",".",2,".",".","|",".",4,".",".","|",".",0,".",".","|",".",2,".",".","|",".",4,".",".","|",".",0,".",2,".",2,".",0,".",0],[".",".",".",".","|",3,".",".",".","|",5,".",".",".","|",".",".",".",".","|",3,".",".",".","|",5,".",".",".","|",".",".",".",".",".",".",".",".",".","."],[0,".",".",".","|",".",".",".",".","|",".",".",".",".","|",3,".",".",".","|",".",".",".",".","|",".",".",".",".","|",3,".",".",".",".",".",3,".",".","."]],[[3,2,".",0,"|",".",".",".",".","|",".",".",".",".","|",".",".",".",".","|",3,2,".",0,"|",".",".",".",".","|",".",".",".",3,"|",2,".",".","."],[".",".",3,".","|",".",".",3,".","|",".",".",".",".","|",".",".",".",".","|",".",".",3,".","|",".",".",3,".","|",".",".",3,".","|",".",".",".","."],[".",".",".",".","|",".",0,".",2,"|",".",0,2,4,"|",".",".",2,0,"|",".",".",".",".","|",".",0,".",2,"|",".",2,".",".","|",".",".",2,"."],[0,".",".",".","|",".",".",".",".","|",0,".",".",".","|",".",0,".",".","|",".",".",".",".","|",".",".",".",".","|",0,".",".",".","|",".",0,".",0],[0,".",".",".","|",3,".",".",".","|",".",".",".",".","|",".",".",".",".","|",".",".",".",".","|",3,".",".",".","|",".",".",".",".","|",".",".",".","."],[0,".",".",".","|",".",".",".",".","|",".",".",".",".","|",3,".",".",".","|",0,".",".",".","|",".",".",".",".","|",".",".",".",".","|",".",".",".","."]],[[7,5,3,0,"|",".",".",3,2,"|",".",".",".",".","|",".",".",".",0,"|",".",".",".",".","|",".",".",".",".",".",".","|",".",".",".",".",".",".","."],[".",".",".",".","|",".",".",".",".","|",".",".",3,0,"|",".",".",3,".","|",".",".",3,".","|",".",".",".",".",".",".","|",".",0,"h",2,".",".",0],[".",".",".",".","|",".",0,".",".","|",".",2,".",".","|",".",0,".",".","|",".",0,".",2,"|",".",2,"h",4,".",0,"|",".",".",".",".",0,".",0],[0,".",".",".","|",".",".",".",".","|",0,".",".",".","|",".",".",".",".","|",".",".",".",".","|",0,".",".",".",0,".","|",".",0,".",2,".",2,0],[0,".",".",".","|",3,".",".",".","|",".",".",".",".","|",".",".",".",".","|",3,".",".",".","|",".",".",".",".",".",".","|",".",".",".",".",".",".","."],[0,".",".",".","|",".",".",".",".","|",".",".",".",".","|",3,".",".",".","|",".",".",".",".","|",".",".",".",".",".",".","|",3,".",".",".",".",".",3]]],"numberofstrings":6,"notes":["E","B","G","D","A","E","B"],"capo":"6","stringnotes":["E4","B3","G3","D3","A2","E2"],"comments":["Stave 1:","Stave 2:","Stave 3:","Stave 4:","Stave 5:","Stave 6:","Stave 7:","Stave 8:"],"timing":[[null,null,null,null,null,null,null,null,null,null,null,null,null,null,null,null,null,null,null,null,"W","W","W","W",null,"W","W","W","W",null,"W","W","W","W",null,"W","W","W","W"],["W","W","W","W",null,"W","W","W","W","W","W","W","W","W",null,"W","W","W","W",null,"W","W",null,"W","W","W",null,"W",null,"W","W","W","W","W","W","W","W","W","W","W","W","W","W"],["W","W","W","W",null,"W","W","W","W",null,"W","W","W","W",null,"W","W","W","W",null,"W","W","W","W",null,"W","W","W","W",null,"W","W","W","W","W","W","W","W"],["W","W","W","W",null,"W","W","W","W",null,"W","W","W","W",null,"W","W","W","W",null,"W","W","W","W","W","W","W","W","W","W","W","W","W","W","W","W","W"],["W","W","W","W",null,"W","W","W","W",null,"W","W","W","W",null,"W","W","W","W",null,"W","W","W","W",null,"W","W","W","W",null,"W","W","W","W","W","W","W","W"],["W","W","W","W",null,"W","W","W","W",null,"W","W","W","W",null,"W","W","W","W",null,"W","W","W","W",null,"W","W","W","W",null,"W","W",null,"W","W","W","W","W","W","W"],["W","W","W","W",null,"W","W","W","W",null,"W","W","W","W",null,"W","W","W","W",null,"W","W","W","W",null,"W","W","W","W",null,"W","W","W","W",null,"W","W","W","W"],["W","W","W","W",null,"W","W","W","W",null,"W","W","W","W",null,"W","W","W","W",null,"W","W","W","W",null,"W","W",null,"W","W","W","W","W","W","W","W","W","W","W","W","W"]],"timingvisible":false,"tabcounter":38,"stave":7,"totalstaves":8,"instrument":"6guitar","selectedtuning":"6_standard","version":"13"}

Member for

1 month 2 weeks
Submitted by Killerkatze on Mon, 2021-03-08 05:24