Sound will begin in 5 seconds

Silver Clock

Chords
01234567891011121314151617181920212223
E
B
G
D
A
E
B
0 1 2 3 4 5 6 7 8 9 10 11 12 13 14 15 16 17 18 19 20 21 22 23
(/) Slide Up  (\) Slide Down  (h) Hammer On  (p) Pull Off  (b) Bend (r) Release (v) Vibrato

Stave 1:

E|---------------------------------------------------------------|----------------------------------------|-----
B|--8b10--10--10--10--10--10r8--6--5--6b8--6--6--5-----------6v--|----------------------------------------|-----
G|---------------------------------------------------------------|-----7--7--9--10/12--10--7/9v--7/9--9v--|-----
D|---------------------------------------------------------------|----------------------------------------|-----
A|---------------------------------------------------------------|----------------------------------------|-----
E|---------------------------------------------------------------|----------------------------------------|-----

Stave 2:

E|---------------------------------12-------------|------10--12b13v--13r12--10--10--|--
B|-----10--12--12b13r12b13r12b13v------13r12--12--|--10-----------------------------|--
G|--9---------------------------------------------|---------------------------------|--
D|------------------------------------------------|---------------------------------|--
A|------------------------------------------------|---------------------------------|--
E|------------------------------------------------|---------------------------------|--

Stave 3:

E|----------------------------------15---------------------15--17--|--
B|------15--17--17b18r17b18r17b18v------18r17--13--13/15v--13--15--|--
G|--14-------------------------------------------------------------|--
D|-----------------------------------------------------------------|--
A|-----------------------------------------------------------------|--
E|-----------------------------------------------------------------|--

Stave 4:

E|------13--15--15b17--17--17--17--17--17r15--15--13--12----------|--
B|--13----------------------------------------------------12------|--
G|------------------------------------------------------------12--|--
D|----------------------------------------------------------------|--
A|----------------------------------------------------------------|--
E|----------------------------------------------------------------|--

Stave 5:

E|------------------------------------------15h19p15h19p15--20p15h20p15h20p15h20--20--20b22--20--15--|--
B|--15--17--18--15--15--17--18--15--17--18-----------------------------------------------------------|--
G|---------------------------------------------------------------------------------------------------|--
D|---------------------------------------------------------------------------------------------------|--
A|---------------------------------------------------------------------------------------------------|--
E|---------------------------------------------------------------------------------------------------|--

Stave 6:

E|--17--19--22b22-----|--|--
B|--18--21------------|--|--
G|--19--21------------|--|--
D|--------------------|--|--
A|--------------------|--|--
E|-----------------12\|--|--

http://www.guitartabcreator.com
Guitar Tab Creator is intended to store guitar tab created through the tool. It currently does not support in-line text editing. Any text you place in here will be lost. If you need to comment on your tab, please use the "Tab Notes" section located below.