Turbonegro - John Carpenter Powder Ballad Solo

Chords

01234567891011121314151617181920212223
E
B
G
D
A
E
B
0 1 2 3 4 5 6 7 8 9 10 11 12 13 14 15 16 17 18 19 20 21 22 23
(/) Slide Up  (\) Slide Down  (h) Hammer On  (p) Pull Off  (b) Bend (r) Release (v) Vibrato

Stave 1:

E|------------------------------------------------------------------------12b14r12--12---------12--
B|--12b14--12--10p9--10p9---------------------------------------------------------------12b14------
G|-------------------------11p9--11b13r11p9-------------------------9h11---------------------------
D|-----------------------------------------h11--9h11p9--------9h11---------------------------------
A|------------------------------------------------------9h11---------------------------------------
E|-------------------------------------------------------------------------------------------------

Stave 2:

E|-------------------------12--------------------14--15--17b19r17--17--15--14--12b14r12--10--12--7\
B|--12b14r12b14r12--12h15------15p12--15b17--17----------------------------------------------------
G|-------------------------------------------------------------------------------------------------
D|-------------------------------------------------------------------------------------------------
A|-------------------------------------------------------------------------------------------------
E|-------------------------------------------------------------------------------------------------

Stave 3:

E|---------------------
B|---------------------
G|--4--2--4--2--4b6r4--
D|---------------------
A|---------------------
E|---------------------

							http://www.guitartabcreator.com
Instruments
{"strings":[[[".",".",".",".",".",".",".",".",".",".",".",".",".",".",".",".",".",".",".",".",".",".",".",".",".",".",".",".",".",".",".",".",".",".",".",".",12,"b",14,"r",12,12,".",".",".",12],[12,"b",14,12,10,"p",9,10,"p",9,".",".",".",".",".",".",".",".",".",".",".",".",".",".",".",".",".",".",".",".",".",".",".",".",".",".",".",".",".",".",".",".",12,"b",14,"."],[".",".",".",".",".",".",".",".",".",".",11,"p",9,11,"b",13,"r",11,"p",9,".",".",".",".",".",".",".",".",".",".",".",".",".",9,"h",11,".",".",".",".",".",".",".",".",".","."],[".",".",".",".",".",".",".",".",".",".",".",".",".",".",".",".",".",".",".",".","h",11,9,"h",11,"p",9,".",".",".",9,"h",11,".",".",".",".",".",".",".",".",".",".",".",".","."],[".",".",".",".",".",".",".",".",".",".",".",".",".",".",".",".",".",".",".",".",".",".",".",".",".",".",".",9,"h",11,".",".",".",".",".",".",".",".",".",".",".",".",".",".",".","."],[".",".",".",".",".",".",".",".",".",".",".",".",".",".",".",".",".",".",".",".",".",".",".",".",".",".",".",".",".",".",".",".",".",".",".",".",".",".",".",".",".",".",".",".",".","."]],[[".",".",".",".",".",".",".",".",".",".",".",".",12,".",".",".",".",".",".",".",14,15,17,"b",19,"r",17,17,15,14,12,"b",14,"r",12,10,12,7,"\\"],[12,"b",14,"r",12,"b",14,"r",12,12,"h",15,".",15,"p",12,15,"b",17,17,".",".",".",".",".",".",".",".",".",".",".",".",".",".",".",".",".",".","."],[".",".",".",".",".",".",".",".",".",".",".",".",".",".",".",".",".",".",".",".",".",".",".",".",".",".",".",".",".",".",".",".",".",".",".",".",".",".","."],[".",".",".",".",".",".",".",".",".",".",".",".",".",".",".",".",".",".",".",".",".",".",".",".",".",".",".",".",".",".",".",".",".",".",".",".",".",".","."],[".",".",".",".",".",".",".",".",".",".",".",".",".",".",".",".",".",".",".",".",".",".",".",".",".",".",".",".",".",".",".",".",".",".",".",".",".",".","."],[".",".",".",".",".",".",".",".",".",".",".",".",".",".",".",".",".",".",".",".",".",".",".",".",".",".",".",".",".",".",".",".",".",".",".",".",".",".","."]],[[".",".",".",".",".",".",".",".","."],[".",".",".",".",".",".",".",".","."],[4,2,4,2,4,"b",6,"r",4],[".",".",".",".",".",".",".",".","."],[".",".",".",".",".",".",".",".","."],[".",".",".",".",".",".",".",".","."]]],"numberofstrings":6,"notes":["E","B","G","D","A","E","B"],"capo":0,"stringnotes":["E4","B3","G3","D3","A2","E2"],"comments":["Stave 1:","Stave 2:","Stave 3:"],"timing":[["W",null,"W","W","W",null,"W","W",null,"W","W",null,"W","W",null,"W",null,"W",null,"W","W","W","W",null,"W",null,"W","W",null,"W","W",null,"W","W",null,"W","W",null,"W",null,"W","W","W",null,"S","S","S",null,"S","S","S"],["S",null,"S","S","S","S","S",null,"S","S",null,"S","S","S",null,"S","S",null,"S","S","S","S","S",null,"S",null,"S","S","S","S","S",null,"S",null,"S","S","S","S"],["W","W","W","W","W",null,"W",null,"W"]],"timingvisible":false,"tabcounter":9,"stave":2,"totalstaves":3,"instrument":"6guitar","selectedtuning":"6_standard","version":"13"}

Member for

1 year 11 months
Submitted by kiikuri on Sun, 2020-10-18 03:35