paskaa

Chords

01234567891011121314151617181920212223
E
B
G
D
A
E
B
0 1 2 3 4 5 6 7 8 9 10 11 12 13 14 15 16 17 18 19 20 21 22 23
(/) Slide Up  (\) Slide Down  (h) Hammer On  (p) Pull Off  (b) Bend (r) Release (v) Vibrato

Stave 1:

E|--------------------------------
B|--------3--------3--------3--3--
G|-----0--------0--------2--------
D|--------------------0-----------
A|--3--------2--------------------
E|--------------------------------

Stave 2:

E|--------------------------------------------------------------------------------------------------
B|--------------------------------------------------------------------------------------------------
G|--------4--------4-----4--------4--------4-----4--------4--------4-----4--------4--------4-----4--
D|-----4--------4--------------2--------2--------------2--------2--------------2--------2-----------
A|--2--------2--------2-----4--------4--------4-----0--------0--------0-----2--------2--------2-----
E|--------------------------------------------------------------------------------------------------

Stave 3:

E|-----------------------------------------------
B|-----------------------------------------------
G|--4--4-----4--4--4-----4--4--4-----4--4--4--4--
D|--4--4-----4--2--2-----2--4--4-----4--2--2--2--
A|--2--2-----2--4--4-----4--2--2-----2--0--0--2--
E|-----------------------------------------------

							http://www.guitartabcreator.com
Instruments
{"title":"","strings":[[[".",".",".",".",".",".",".",".",".","."],[".",".",3,".",".",3,".",".",3,3],[".",0,".",".",0,".",".",2,".","."],[".",".",".",".",".",".",0,".",".","."],[3,".",".",2,".",".",".",".",".","."],[".",".",".",".",".",".",".",".",".","."]],[[".",".",".",".",".",".",".",".",".",".",".",".",".",".",".",".",".",".",".",".",".",".",".",".",".",".",".",".",".",".",".","."],[".",".",".",".",".",".",".",".",".",".",".",".",".",".",".",".",".",".",".",".",".",".",".",".",".",".",".",".",".",".",".","."],[".",".",4,".",".",4,".",4,".",".",4,".",".",4,".",4,".",".",4,".",".",4,".",4,".",".",4,".",".",4,".",4],[".",4,".",".",4,".",".",".",".",2,".",".",2,".",".",".",".",2,".",".",2,".",".",".",".",2,".",".",2,".",".","."],[2,".",".",2,".",".",2,".",4,".",".",4,".",".",4,".",0,".",".",0,".",".",0,".",2,".",".",2,".",".",2,"."],[".",".",".",".",".",".",".",".",".",".",".",".",".",".",".",".",".",".",".",".",".",".",".",".",".",".",".",".",".",".",".","."]],[[".",".","_",".",".",".","_",".",".",".","_",".",".",".","."],[".",".","_",".",".",".","_",".",".",".","_",".",".",".","."],[4,4,"_",4,4,4,"_",4,4,4,"_",4,4,4,4],[4,4,"_",4,2,2,"_",2,4,4,"_",4,2,2,2],[2,2,"_",2,4,4,"_",4,2,2,"_",2,0,0,2],[".",".","_",".",".",".","_",".",".",".","_",".",".",".","."]]],"numberofstrings":6,"notes":["E","B","G","D","A","E","B"],"capo":0,"stringnotes":["E4","B3","G3","D3","A2","E2"],"comments":["Stave 1:","Stave 2:","Stave 3:"],"timing":[["W","W","W","W","W","W","W","W","W","W"],["W","W","W","W","W","W","W","W","W","W","W","W","W","W","W","W","W","W","W","W","W","W","W","W","W","W","W","W","W","W","W","W"],["W","W",null,"W","W","W",null,"W","W","W",null,"W","W","W","W"]],"timingvisible":false,"tabcounter":14,"stave":2,"totalstaves":3,"instrument":"6guitar","selectedtuning":"6_standard","version":"13"}

Member for

2 years
Submitted by kiikuri on Mon, 2019-03-25 21:57