Heikki Silventoinen - Poor Little Girl solo

Chords

01234567891011121314151617181920212223
E
B
G
D
A
E
B
0 1 2 3 4 5 6 7 8 9 10 11 12 13 14 15 16 17 18 19 20 21 22 23
(/) Slide Up  (\) Slide Down  (h) Hammer On  (p) Pull Off  (b) Bend (r) Release (v) Vibrato

Stave 1:

E|-----------------------------------------------------------------
B|--------------------------------------------------12p9--12--12v--
G|--11b13--8--11--11b11b11--11--9--8-------------------------------
D|------------------------------------11--9------9-----------------
A|-------------------------------------------11--------------------
E|-----------------------------------------------------------------

Stave 2:

E|-----------------12---------12---------12---------12----------------------------
B|--16--17--15b17------15b17------15b17------15b17------15b17--12------12--15b17--
G|-----------------------------------------------------------------13-------------
D|--------------------------------------------------------------------------------
A|--------------------------------------------------------------------------------
E|--------------------------------------------------------------------------------

Stave 3:

E|-------------------------------------------
B|------19b21--19--17--16h17p16--12--14--12--
G|--16---------------------------------------
D|-------------------------------------------
A|-------------------------------------------
E|-------------------------------------------

Stave 4:

E|-------------------------------------------------------------------------------
B|--19b21--19b21--17------19--17--16h17p16--12--9--12--12b14--12--9h12p9---------
G|--------------------18--------------------------------------------------11--9--
D|-------------------------------------------------------------------------------
A|-------------------------------------------------------------------------------
E|-------------------------------------------------------------------------------

Stave 5:

E|--19b19b19b19b19b19b19--21b21b21------------19----------------------------
B|--------------------------------/17--19b21------19b21--17------19b21--19--
G|-----------------------------------------------------------18-------------
D|--------------------------------------------------------------------------
A|--------------------------------------------------------------------------
E|--------------------------------------------------------------------------

							http://www.guitartabcreator.com
Tab Notes

Heikki Silventoinen - Poor Little Girl solo

Instruments
{"title":"","strings":[[[".",".",".",".",".",".",".",".",".",".",".",".",".",".",".",".",".",".",".",".",".",".","."],[".",".",".",".",".",".",".",".",".",".",".",".",".",".",".",".",".",12,"p",9,12,12,"v"],[11,"b",13,8,11,11,"b",11,"b",11,11,9,8,".",".",".",".",".",".",".",".",".","."],[".",".",".",".",".",".",".",".",".",".",".",".",".",11,9,".",9,".",".",".",".",".","."],[".",".",".",".",".",".",".",".",".",".",".",".",".",".",".",11,".",".",".",".",".",".","."],[".",".",".",".",".",".",".",".",".",".",".",".",".",".",".",".",".",".",".",".",".",".","."]],[[".",".",".",".",".",12,".",".",".",12,".",".",".",12,".",".",".",12,".",".",".",".",".",".",".",".","."],[16,17,15,"b",17,".",15,"b",17,".",15,"b",17,".",15,"b",17,".",15,"b",17,12,".",12,15,"b",17],[".",".",".",".",".",".",".",".",".",".",".",".",".",".",".",".",".",".",".",".",".",".",13,".",".",".","."],[".",".",".",".",".",".",".",".",".",".",".",".",".",".",".",".",".",".",".",".",".",".",".",".",".",".","."],[".",".",".",".",".",".",".",".",".",".",".",".",".",".",".",".",".",".",".",".",".",".",".",".",".",".","."],[".",".",".",".",".",".",".",".",".",".",".",".",".",".",".",".",".",".",".",".",".",".",".",".",".",".","."]],[[".",".",".",".",".",".",".",".",".",".",".",".",".","."],[".",19,"b",21,19,17,16,"h",17,"p",16,12,14,12],[16,".",".",".",".",".",".",".",".",".",".",".",".","."],[".",".",".",".",".",".",".",".",".",".",".",".",".","."],[".",".",".",".",".",".",".",".",".",".",".",".",".","."],[".",".",".",".",".",".",".",".",".",".",".",".",".","."]],[[".",".",".",".",".",".",".",".",".",".",".",".",".",".",".",".",".",".",".",".",".",".",".",".",".",".",".",".","."],[19,"b",21,19,"b",21,17,".",19,17,16,"h",17,"p",16,12,9,12,12,"b",14,12,9,"h",12,"p",9,".","."],[".",".",".",".",".",".",".",18,".",".",".",".",".",".",".",".",".",".",".",".",".",".",".",".",".",".",".",11,9],[".",".",".",".",".",".",".",".",".",".",".",".",".",".",".",".",".",".",".",".",".",".",".",".",".",".",".",".","."],[".",".",".",".",".",".",".",".",".",".",".",".",".",".",".",".",".",".",".",".",".",".",".",".",".",".",".",".","."],[".",".",".",".",".",".",".",".",".",".",".",".",".",".",".",".",".",".",".",".",".",".",".",".",".",".",".",".","."]],[[19,"b",19,"b",19,"b",19,"b",19,"b",19,"b",19,21,"b",21,"b",21,".",".",".",".",".",19,".",".",".",".",".",".",".",".","."],[".",".",".",".",".",".",".",".",".",".",".",".",".",".",".",".",".",".","/",17,19,"b",21,".",19,"b",21,17,".",19,"b",21,19],[".",".",".",".",".",".",".",".",".",".",".",".",".",".",".",".",".",".",".",".",".",".",".",".",".",".",".",".",18,".",".",".","."],[".",".",".",".",".",".",".",".",".",".",".",".",".",".",".",".",".",".",".",".",".",".",".",".",".",".",".",".",".",".",".",".","."],[".",".",".",".",".",".",".",".",".",".",".",".",".",".",".",".",".",".",".",".",".",".",".",".",".",".",".",".",".",".",".",".","."],[".",".",".",".",".",".",".",".",".",".",".",".",".",".",".",".",".",".",".",".",".",".",".",".",".",".",".",".",".",".",".",".","."]]],"numberofstrings":6,"notes":["E","B","G","D","A","E","B"],"capo":0,"stringnotes":["E4","B3","G3","D3","A2","E2"],"comments":["Stave 1:","Stave 2:","Stave 3:","Stave 4:","Stave 5:"],"timing":[["W",null,"W","W","W","W",null,"W",null,"W","W","W","W","W","W","W","W","W",null,"W","W","W"],["W","W","W",null,"W","W","W",null,"W","W","W",null,"W","W","W",null,"W","W","W",null,"W","W","W","W","W",null,"W"],["W","W",null,"W","W","W","W",null,"W",null,"W","W","W","W"],["W",null,"W","W",null,"W","W","W","W","W","W",null,"W",null,"W","W","W","W","W",null,"W","W","W",null,"W",null,"W","W","W"],["W",null,"W",null,"W",null,"W",null,"W",null,"W",null,"W","W",null,"W",null,"W","W","W","W",null,"W","W","W",null,"W","W","W","W",null,"W","W"]],"timingvisible":false,"tabcounter":33,"stave":4,"totalstaves":5,"instrument":"6guitar","selectedtuning":"6_standard","version":"13"}

Member for

2 years
Submitted by kiikuri on Thu, 2019-12-05 06:53