????

(/) Slide Up  (\) Slide Down  (h) Hammer On  (p) Pull Off  (b) Bend (r) Release (v) Vibrato

Capo Fret 2

Stave 1:

E|--------------------------------------------------
B|--------------------------------------------------
G|--------------------------------------------------
D|--------0--------0--------------0--------0--------
A|-----2--------2-----2--------2--------4-----4-----
E|--0--------0-----------0--3--------5-----------5--

Stave 2:

E|-----------------------------
B|-----------------------------
G|--------0--------0--------0--
D|-----------------------------
A|-----2--------2--------4-----
E|--0--------3--------5--------

Stave 3:

E|----------------------------------
B|----------------------------------
G|--------0--2p0--------2--------2--
D|----------------------------------
A|-----2-------------2--------4-----
E|--0-------------3--------5--------

Stave 4:

E|--------------------------------------------------------------------------------------------------
B|--------------------------------------------------------------------------------------------------
G|--------------------------------------------------------------------------------------------------
D|--------------------------------------------------------------------------------------------------
A|--2--------2--2--2--2--2--5--------5--5--5--5--5--4--------4--4--4--4--4--3--------3--3--3--3--3--
E|--0--------0--0--0--0--0--0--------0--0--0--0--0--0--------0--0--0--0--0--0--------0--0--0--0--0--

Stave 5:

E|--------------------------------------------------------------------------------------------------------
B|--------------------------------------------------------------------------------------------------------
G|--------------------------------------------------------------------------------------------------------
D|--------------------------------------------------------------------------------------------------------
A|--2--------2--2--2--2--2--5--------5--5--5--5--5--4--------4--4--4--4--4--10--------10--10--10--10--10--
E|--0--------0--0--0--0--0--0--------0--0--0--0--0--0--------0--0--0--0--0--0---------0---0---0---0---0---

Stave 6:

E|--------------------------------------------------------------------0-----------0-----0--
B|--------------------------------------------------------------------0-----------0-----0--
G|-----------------------------------------------------------------------------------------
D|--5-----5--5--5--5--7-----7--7--7--7--7--7--2-----2--2--2--2--2--2-----2--2--2-----2-----
A|--5-----5--5--5--5--7-----7--7--7--7--7--7--2-----2--2--2--2--2--2-----2--2--2-----2-----
E|--3-----3--3--3--3--5-----5--5--5--5--5--5--0-----0--0--0--0--0--0-----0--0--0-----0-----

Stave 7:

E|-------------------------------------------------------------------------------------------------------
B|-------------------------------------------------------------------------------------------------------
G|-------------------------------------------------------------------------------------------------------
D|--5-----5--5--5--5--7-----7--7--7--7--7--7--10--10--10--10--10--10--10--10-----10--10--10--10--10--10--
A|--5-----5--5--5--5--7-----7--7--7--7--7--7--10--10--10--10--10--10--10--10-----10--10--10--10--10--10--
E|--3-----3--3--3--3--5-----5--5--5--5--5--5--8---8---8---8---8---8---8---8------8---8---8---8---8---8---

Stave 8:

E|-----------------------------------------------
B|-----------------------------------------------
G|-----------------------------------------------
D|--9--9--9--9--9--9--9--9-----9--9--9--9--9--9--
A|--9--9--9--9--9--9--9--9-----9--9--9--9--9--9--
E|--7--7--7--7--7--7--7--7-----7--7--7--7--7--7--

Stave 9:

E|-----------0-----------------0-----------------0-----------0--------
B|--------------0-----------------0-----------------0-----------0-----
G|-----------------0-----------------0-----------------0-----------0--
D|--------------------------------------------------------------------
A|--2-----------------5-----------------4-----------------3-----------
E|--0-----------------0-----------------0-----------------0-----------

Stave 10:

E|------------------------------------------------------------------------------------------
B|------------------------------------------------------------------------------------------
G|------------------------------------------------------------------------------------------
D|----------------------------------------------------------------10--10-----10-----10--10--
A|--2-----2--2--2--2--2--10--10-----10-----10--10--7--7--7--7--7--10--10-----10-----10--10--
E|--0-----0--0--0--0--0--0---0------0------0---0---9--9--9--9--9--8---8------8------8---8---

http://www.guitartabcreator.com
Guitar Tab Creator is intended to store guitar tab created through the tool. It currently does not support in-line text editing. Any text you place in here will be lost. If you need to comment on your tab, please use the "Tab Notes" section located below.