Sound will begin in 5 seconds

MAD DASH BASS

01234567891011121314151617181920212223
E
B
G
D
A
E
B
0 1 2 3 4 5 6 7 8 9 10 11 12 13 14 15 16 17 18 19 20 21 22 23
(/) Slide Up  (\) Slide Down  (h) Hammer On  (p) Pull Off  (b) Bend (r) Release (v) Vibrato

Stave 1:

G|--------------------------------------------------------------------------
D|--------------------------------------------------------------------------
A|--3--1-----1-----1--3--1-----1-----1--3--1-----1-----1--3--1-----1-----1--
E|--------3-----3-----------3-----3-----------3-----3-----------3-----3-----

Stave 2:

G|----------------------
D|------------3\1--3\1--
A|--3\1--3\1------------
E|----------------------

Stave 3:

G|-----------0--------------------0--------------------0--------------------0-----------
D|--3--1--3-----3--1--1--3--1--3-----3--1--1--3--1--3-----3--1--1--3--1--3-----3--1--1--
A|--------------------------------------------------------------------------------------
E|--------------------------------------------------------------------------------------

Stave 4:

G|---------------------------------------------
D|--3\1-------3\1--5\3--3\1-------3\1--5\3--1--
A|-------3/6-----------------3/6---------------
E|---------------------------------------------

Stave 5:

G|--------------------------------------------------------
D|--------------------------1--------------------------3--
A|--1--1--1--1--3--3--3--3-----1--1--1--1--3--3--3--3-----
E|--------------------------------------------------------

Stave 6:

G|-----------------------------------------0--0--0--0-----
D|--3--3--3--3--1--1--1--1-----3--3--3--3--------------1--
A|--------------------------3-----------------------------
E|--------------------------------------------------------

Stave 7:

G|-----------------------------------------0--0--0--0-----
D|--3--3--3--3--1--1--1--1-----3--3--3--3--------------1--
A|--------------------------3-----------------------------
E|--------------------------------------------------------

http://www.guitartabcreator.com
Guitar Tab Creator is intended to store guitar tab created through the tool. It currently does not support in-line text editing. Any text you place in here will be lost. If you need to comment on your tab, please use the "Tab Notes" section located below.