Sound will begin in 5 seconds

KICKSIE - MAD DASH [LEAD GUITAR]

01234567891011121314151617181920212223
E
B
G
D
A
E
B
0 1 2 3 4 5 6 7 8 9 10 11 12 13 14 15 16 17 18 19 20 21 22 23
(/) Slide Up  (\) Slide Down  (h) Hammer On  (p) Pull Off  (b) Bend (r) Release (v) Vibrato

Capo Fret 3

Stave 1:

E|--10h12p10--8-----8--10h12p10--8-----8--10h12p10--8--------10h12p10--8--------
C|---------------0------------------0---------------------0------------------0--
G|-----------------------------------------------------0------------------0-----
C|------------------------------------------------------------------------------
A|------------------------------------------------------------------------------
F|------------------------------------------------------------------------------

Stave 2:

E|--5--3-----3--5--3---------------
C|--------4-----------4--2/4--7p0--
G|---------------------------------
C|---------------------------------
A|---------------------------------
F|---------------------------------

Stave 3:

E|-----------------------------------------------------------------------------------
C|-----------9--7----------------9--7------------------------------------------------
G|--9--7-----------5/9--9--7-----------9\5--5--2-----2--5--2-----5--5/9--7--9--7--5--
C|--------0-------------------0-------------------0-----------0----------------------
A|-----------------------------------------------------------------------------------
F|-----------------------------------------------------------------------------------

Stave 4:

E|--12--12--12--12--10--10--10--10------12--12--12--12--10--10--10--10------
C|----------------------------------12----------------------------------12--
G|--------------------------------------------------------------------------
C|--------------------------------------------------------------------------
A|--------------------------------------------------------------------------
F|--------------------------------------------------------------------------

Stave 5:

E|------------------10--10--10--10---------------------10--10--10--10-----
C|--12--12--12--12------------------9--12--12--12--12------------------9--
G|------------------------------------------------------------------------
C|------------------------------------------------------------------------
A|------------------------------------------------------------------------
F|------------------------------------------------------------------------

Stave 6:

E|--12--12--12--12--10--10--10--10----------------------10--10--10--10--------
C|----------------------------------12--12--12--12--12------------------9/12--
G|----------------------------------------------------------------------------
C|----------------------------------------------------------------------------
A|----------------------------------------------------------------------------
F|----------------------------------------------------------------------------

http://www.guitartabcreator.com
Guitar Tab Creator is intended to store guitar tab created through the tool. It currently does not support in-line text editing. Any text you place in here will be lost. If you need to comment on your tab, please use the "Tab Notes" section located below.