Sound will begin in 5 seconds

KICKSIE - DRUNK KARAOKE [LEAD GUITAR]

01234567891011121314151617181920212223
E
B
G
D
A
E
B
0 1 2 3 4 5 6 7 8 9 10 11 12 13 14 15 16 17 18 19 20 21 22 23
(/) Slide Up  (\) Slide Down  (h) Hammer On  (p) Pull Off  (b) Bend (r) Release (v) Vibrato

Capo Fret 3

Stave 1:

E|-----------------------------------------3--
C|--------------2--------2--4--------2--4-----
G|-----4-----4--------4-----------4-----------
C|--0-----0--------0-----------0--------------
A|--------------------------------------------
F|--------------------------------------------

Stave 2:

E|--------------3--------------3--------------3--------------3--
C|--------2--4-----------2--4-----------2--4-----------2--4-----
G|-----4--------------4--------------4--------------4-----------
C|--0--------------0--------------0--------------0--------------
A|--------------------------------------------------------------
F|--------------------------------------------------------------

Stave 3:

E|------------------------------------------------------
C|--4/7--4--2--4--2-----0--0--4/7--4--2--4--2--------0--
G|-------------------4-------------------------0--2-----
C|------------------------------------------------------
A|------------------------------------------------------
F|------------------------------------------------------

Stave 4:

E|--------------------------------------------
C|--0--2--4--2--0-----0--2--0--0--2--0-----0--
G|-----------------2--------------------2-----
C|--------------------------------------------
A|--------------------------------------------
F|--------------------------------------------

Stave 5:

E|--------------------------------------------------------
C|--0--2--0--------------------0--2--0--------------------
G|-----------4--5--4--2--0--0-----------4--5--4--2--0--0--
C|--------------------------------------------------------
A|--------------------------------------------------------
F|--------------------------------------------------------

Stave 6:

E|----------------------------------------
C|--0--2/7--5--4--2--4--5--7--9--7--9--7--
G|----------------------------------------
C|----------------------------------------
A|----------------------------------------
F|----------------------------------------

Stave 7:

E|---------------------------------------------------
C|--0--2--2/4--7--4--7--4--2--0--0--2--0-------------
G|----------------------------------------0--2--2/5--
C|---------------------------------------------------
A|---------------------------------------------------
F|---------------------------------------------------

Stave 8:

E|----------------------------------
C|-----0--0--2--4--2--4--4/7--5--4--
G|--2-------------------------------
C|----------------------------------
A|----------------------------------
F|----------------------------------

http://www.guitartabcreator.com
Guitar Tab Creator is intended to store guitar tab created through the tool. It currently does not support in-line text editing. Any text you place in here will be lost. If you need to comment on your tab, please use the "Tab Notes" section located below.