Sound will begin in 5 seconds

KICKSIE - DRUNK KARAOKE [BASS]

01234567891011121314151617181920212223
E
B
G
D
A
E
B
0 1 2 3 4 5 6 7 8 9 10 11 12 13 14 15 16 17 18 19 20 21 22 23
(/) Slide Up  (\) Slide Down  (h) Hammer On  (p) Pull Off  (b) Bend (r) Release (v) Vibrato

Stave 1:

G|--------------------------------
D|--------------------------------
A|--8--6--5-----5--8--5-----5-----
E|-----------8-----------8-----6--

Stave 2:

G|--------------------------------------------------------------------------
D|-----------3--3--3--0--0--0--------------------3--3--3--0--0--0-----------
A|-----------------------------3--3--3-----------------------------3--3--3--
E|--4--4--4-----------------------------4--4--4-----------------------------

Stave 3:

G|--------------------------------------------------------------
D|-----------3--3--3--5--5--5--3--3--3-----------3--3--3--5--8--
A|--------------------------------------------------------------
E|--4--4--4-----------------------------4--4--4-----------------

Stave 4:

G|--------------------------------------------------
D|--1--1--1--3--3--1--1--1--1--1--1--------1--1--1--
A|-----------------------------------3--3-----------
E|--------------------------------------------------

Stave 5:

G|-----------1--1--0--0--0-----------1--0--------
D|--3--3--3-----------------3--3--3--------1--3--
A|-----------------------------------------------
E|-----------------------------------------------

Stave 6:

G|--------------------------------------------------------------------------------------------------
D|--1--1--1--1--1--1--1--1--------------------------3--3--3--3--3--3--3--3--1--1--1--1--1--1--1--1--
A|--------------------------3--3--3--3--3--3--3--3--------------------------------------------------
E|--------------------------------------------------------------------------------------------------

Stave 7:

G|--------------------------1--1--1--1--1--1--1--1--0--0--0--0--0--0--0--0--------------------------
D|--3--3--3--3--3--3--3--3--------------------------------------------------1--1--1--1--1--1--1--1--
A|--------------------------------------------------------------------------------------------------
E|--------------------------------------------------------------------------------------------------

http://www.guitartabcreator.com
Guitar Tab Creator is intended to store guitar tab created through the tool. It currently does not support in-line text editing. Any text you place in here will be lost. If you need to comment on your tab, please use the "Tab Notes" section located below.