Sound will begin in 5 seconds

KICKSIE - COME HOME [LEAD GUITAR]

01234567891011121314151617181920212223
E
B
G
D
A
E
B
0 1 2 3 4 5 6 7 8 9 10 11 12 13 14 15 16 17 18 19 20 21 22 23
(/) Slide Up  (\) Slide Down  (h) Hammer On  (p) Pull Off  (b) Bend (r) Release (v) Vibrato

Stave 1:

E|--15--17----------15--17---------15--17---------
C|----------16--14----------16\12----------16-----
G|------------------------------------------------
C|------------------------------------------------
A|------------------------------------------------
F|------------------------------------------------

Stave 2:

E|------------------------------------------------------------
C|-----12-----14-----12--14--11-----12-----14-----12--14--11--
G|--0------0------0--------------0------0------0--------------
C|------------------------------------------------------------
A|------------------------------------------------------------
F|------------------------------------------------------------

Stave 3:

E|--------------------------------------------------------------
C|-----12-----14/16-----12-----14/19-----12-----14--12--11--12--
G|--0------0---------0------0---------0------0------------------
C|--------------------------------------------------------------
A|--------------------------------------------------------------
F|--------------------------------------------------------------

Stave 4:

E|--17------15----------------------17------15-------------------
C|------16------14--12/14/16\14\12------16------16--14\12/16/19--
G|---------------------------------------------------------------
C|---------------------------------------------------------------
A|---------------------------------------------------------------
F|---------------------------------------------------------------

http://www.guitartabcreator.com
Guitar Tab Creator is intended to store guitar tab created through the tool. It currently does not support in-line text editing. Any text you place in here will be lost. If you need to comment on your tab, please use the "Tab Notes" section located below.