Wonderful Tonight

Chords

01234567891011121314151617181920212223
E
B
G
D
A
E
B
0 1 2 3 4 5 6 7 8 9 10 11 12 13 14 15 16 17 18 19 20 21 22 23
(/) Slide Up  (\) Slide Down  (h) Hammer On  (p) Pull Off  (b) Bend (r) Release (v) Vibrato

Stave 1:

E|--------------------------------------------------------------------------------------0-----1-----3/5--3-------------------------------------------------------
B|--------1-----3/5/3--1--3-----------3-----3/5/3--1--------------1-----3/5/3--1--3-----3--------0-------1-----1-----3/5/3--1--3--------3-----3/5/3--1-----------
G|--------0---------------------------0---------------2-----------2---------------0--------0----------------0-----0---------------------0------------------------
D|-----2-----2---------------------0-----0---------------------3-----3---------------0-----------------------------------------------0-----0---------------------
A|--3---------------------------2---------------------------1--------------------------------------------3------------------------2------------------------------
E|--------------------------------------------------------------------------------3------------------------------------------------------------------------------



E|------------------------------0-----1-----3/5--3--------3--------------0--0--0h1--0--------3-----------3--------------------------0--0-----0h1--0--0-----------
B|--------1-----3/5/3--1--3-----3--------0-------1--------1-----------------1----------3-----0--------------0-----------1--------------1-------------------------
G|--------2---------------0--------0-------------------0--------0----------------------------------0-----------0--------2-----2----------------------------------
D|-----3-----3---------------0----------------------2--------2----------------------------------0-----------------0--------3-------------------------------------
A|-----------------------------------------------3--------3-----------------3------------------------------------------------------------------------------------
E|------------------------3---------------------------------------------------------------3-----------------------------1--------------1-------------------------



E|--------------------------------------------0-----0-----0h1--0--------------3-----------3--------------------------0--0--0h1--0--0-----------------------------
B|--------3--3--------------------------------------1-------------3-----------0--------------0-----------1--------------1-------------------3--------------------
G|--------0-----------------0-----------0-------------------------------------------0-----------0--------2-----2----------------------------0--3-----------------
D|-----0-----------------0-----------2-------------------------------------------0-----------------0--------3----------------------------0-----------------------
A|--------------------2-----------3-----------------3------------------------------------------------------------------------------------------------2-----------
E|-----------------3----------------------------------------------------3--------------------------------1----------------------------3-----------3--------------



E|--------------------5--5--5--3-----------------0--------------------0--0--0--3-----------------0-------------0--1--------1--------1--0------------------------
B|--------------1-----1--------------3--------------3-----------------1-----0--------1-----------1-----1--1h3-----1-----1-----------------3--------3/5/3--1--1--
G|-----------2-----2--2--------------0-----0-----------0-----------------------------0--------2--2-------------------2-----------2--------0-----0---------0-----
D|--0--2--3-----------3-----------------0-----------------0--------2-----------------------2-----2----------------3-----------3--------------0------------------
A|--------------------------------------------------------------3-----------2-----2-----0--------0--------------------------------------------------------------
E|--------------------------------3-------------------------------------------------------------------------------------------------------3---------------------



E|-----------------------------------------------------------------------------------0-----1-----3/5--3-----------0--0--0h1--0-----------3-----------3-----------
B|--------1-----3/5/3--1--3--------3-----3/5/3--1--------------1-----3/5/3--1--3-----3--------0-------1--------------1----------3--------0--------------0--------
G|--------0------------------------0---------------2-----------2---------------0--------0-------------------0----------------------------------0-----------0-----
D|-----2-----2------------------0-----0---------------------3-----3---------------0----------------------2----------------------------------0-----------------0--
A|--3------------------------2------------------------------------------------------------------------3----------------------------------------------------------
E|-------------------------------------------------------1---------------------3-------------------------------------3----------------3--------------------------



E|--------------0--0--0h1--0--0--------------------------------------------0--0-----0h1--0--------3-----------3-----------------------0--0--0h1--0--0--------------------
B|--1--------------1----------------------3--3--------------------------------1-------------3-----0--------------0-----------1-----------1-------------------3--3--------
G|--2-----2-------------------------------0-----------------0-----------0-------------------------------0-----------0--------------2-------------------------0-----------
D|-----3-------------------------------0-----------------0-----------2-------------------------------0-----------------0-----2--3-------------------------0--------------
A|----------------------------------------------------2-----------3-----------3---------------------------------------------------------------------------------------2--
E|--1--------------1-------------3-----------------3-------------------------------------------3-----------------------------1-------------------------3-----------3-----



E|--------------------5--5--5--3--------------0-----------------0--0--0--3--------------------0-------------0--1--------1--------1--0---------------------------------------
B|--------------1-----1--------------3-----------3--------------1-----0-----------1-----------1-----1--1h3-----1-----1-----------------3--------3/5/3--1--1-----------1-----
G|-----------2-----2--2--------------0-----0--------0-----------------------------0--------2--2-------------------2-----------2--------0-----0---------0-----------0--------
D|-----2--3-----------3-----------------0--------------0-----2--------------------------2-----2----------------3-----------3--------------0---------------------2-----------
A|--------------------------------------------------------3-----------2--------2-----0--------0--------------------------------------------------------------3--------------
E|--------------------------------3----------------------------------------------------------------------------------------------------3------------------------------------



E|--------------------------0--------0--3/5--5-----5--5--------0--3-----3-----3-----------1--0--0-----0--3-----------------0-----0--3/5--5--5--------5--0--3-----------
B|-----------1-----------1--1----------------1--1-----------1-----0-----------0-----------0--1--------0--------1-----------1-------------1--------1--------0--------0--
G|--------0-----------0-----3-------------------------------------------------------------------------------------------2--2-------------------------------------0-----
D|-----2-----------2--------2-----2----------3-----------3-----------------0-----------------------------------------2-----2-------------3-----3--------------0--------
A|--3-----------3-----------3--3----------------------------------------------------2--------3-----3--2-----2-----0--------0-------------------------------------------
E|----------------------------------------------------------------3--------------3-------------------------------------------------------------------------3-----------



E|-----0--1--0--------------------0--------------------------------------------------------------------------------------------0-----1--------3/5--3--
B|--3-----1--------3--1--3--------3--3-----1--1-----1--------3/5/3--1--3--------3-----3/5/3--1-----------1-----3/5/3--1--3-----3-----------0-------1--
G|-----------------0-----------------------0--------0---------------------------0---------------2--------2---------------0--------0-------------------
D|--------3-----3--------------0--------------------------2------------------0-----0------------------3-----3---------------0-------------------------
A|-----------------------------------------------3-----3------------------2------------------------------------------------------------------------3--
E|--------------------------3-----------3----------------------------------------------------------1---------------------3----------------------------

							http://www.guitartabcreator.com
Instruments
{"strings":[[[".",".",".",".",".",".",".",".",".",".",".",".",".",".",".",".",".",".",".",".",".",".",".",".",".",".",".",".",".",".",".",".",".",".",".",".",0,".",1,".",3,"/",5,3,".",".",".",".",".",".",".",".",".",".",".",".",".",".",".",".",".",".",".",".",".",".","."],[".",".",1,".",3,"/",5,"/",3,1,3,".",".",".",3,".",3,"/",5,"/",3,1,".",".",".",".",1,".",3,"/",5,"/",3,1,3,".",3,".",".",0,".",".",".",1,".",1,".",3,"/",5,"/",3,1,3,".",".",3,".",3,"/",5,"/",3,1,".",".","."],[".",".",0,".",".",".",".",".",".",".",".",".",".",".",0,".",".",".",".",".",".",".",2,".",".",".",2,".",".",".",".",".",".",".",0,".",".",0,".",".",".",".",".",".",0,".",0,".",".",".",".",".",".",".",".",".",0,".",".",".",".",".",".",".",".",".","."],[".",2,".",2,".",".",".",".",".",".",".",".",".",0,".",0,".",".",".",".",".",".",".",".",".",3,".",3,".",".",".",".",".",".",".",0,".",".",".",".",".",".",".",".",".",".",".",".",".",".",".",".",".",".",".",0,".",0,".",".",".",".",".",".",".",".","."],[3,".",".",".",".",".",".",".",".",".",".",".",2,".",".",".",".",".",".",".",".",".",".",".",1,".",".",".",".",".",".",".",".",".",".",".",".",".",".",".",".",".",".",3,".",".",".",".",".",".",".",".",".",".",2,".",".",".",".",".",".",".",".",".",".",".","."],[".",".",".",".",".",".",".",".",".",".",".",".",".",".",".",".",".",".",".",".",".",".",".",".",".",".",".",".",".",".",".",".",".",".",3,".",".",".",".",".",".",".",".",".",".",".",".",".",".",".",".",".",".",".",".",".",".",".",".",".",".",".",".",".",".",".","."]],[[".",".",".",".",".",".",".",".",".",".",".",".",0,".",1,".",3,"/",5,3,".",".",3,".",".",".",".",0,0,0,"h",1,0,".",".",3,".",".",".",3,".",".",".",".",".",".",".",".",0,0,".",0,"h",1,0,0,".",".","."],[".",".",1,".",3,"/",5,"/",3,1,3,".",3,".",".",0,".",".",".",1,".",".",1,".",".",".",".",".",1,".",".",".",".",3,".",0,".",".",".",".",0,".",".",".",1,".",".",".",".",1,".",".",".",".",".",".",".",".","."],[".",".",2,".",".",".",".",".",".",".",0,".",".",0,".",".",".",".",".",".",".",0,".",".",0,".",".",".",".",".",".",".",".",".",".",".",".",0,".",".",".",0,".",".",2,".",2,".",".",".",".",".",".",".",".",".",".",".","."],[".",3,".",3,".",".",".",".",".",".",".",0,".",".",".",".",".",".",".",".",2,".",".",2,".",".",".",".",".",".",".",".",".",".",".",".",0,".",".",".",".",".",0,".",".",3,".",".",".",".",".",".",".",".",".",".",".",".","."],[".",".",".",".",".",".",".",".",".",".",".",".",".",".",".",".",".",".",".",3,".",".",3,".",".",".",".",".",3,".",".",".",".",".",".",".",".",".",".",".",".",".",".",".",".",".",".",".",".",".",".",".",".",".",".",".",".",".","."],[".",".",".",".",".",".",".",".",".",".",3,".",".",".",".",".",".",".",".",".",".",".",".",".",".",".",".",".",".",".",".",".",".",".",3,".",".",".",".",".",".",".",".",".",1,".",".",".",".",1,".",".",".",".",".",".",".",".","."]],[[".",".",".",".",".",".",".",".",".",".",".",".",".",".",0,".",0,".",0,"h",1,0,".",".",".",".",3,".",".",".",3,".",".",".",".",".",".",".",".",0,0,0,"h",1,0,0,".",".",".",".",".",".",".",".","."],[".",".",3,3,".",".",".",".",".",".",".",".",".",".",".",".",1,".",".",".",".",".",3,".",".",".",0,".",".",".",".",0,".",".",".",1,".",".",".",".",1,".",".",".",".",".",".",".",3,".",".",".",".",".","."],[".",".",0,".",".",".",".",".",0,".",".",".",0,".",".",".",".",".",".",".",".",".",".",".",".",".",".",".",0,".",".",".",0,".",".",2,".",2,".",".",".",".",".",".",".",".",".",".",0,3,".",".",".",".","."],[".",0,".",".",".",".",".",0,".",".",".",2,".",".",".",".",".",".",".",".",".",".",".",".",".",".",".",0,".",".",".",".",".",0,".",".",3,".",".",".",".",".",".",".",".",".",".",0,".",".",".",".",".",".","."],[".",".",".",".",".",".",2,".",".",".",3,".",".",".",".",".",3,".",".",".",".",".",".",".",".",".",".",".",".",".",".",".",".",".",".",".",".",".",".",".",".",".",".",".",".",".",".",".",".",".",".",2,".",".","."],[".",".",".",".",".",3,".",".",".",".",".",".",".",".",".",".",".",".",".",".",".",".",".",".",3,".",".",".",".",".",".",".",".",".",".",1,".",".",".",".",".",".",".",".",".",".",3,".",".",".",3,".",".",".","."]],[[".",".",".",".",".",".",5,5,5,3,".",".",".",".",".",0,".",".",".",".",".",".",0,0,0,3,".",".",".",".",".",0,".",".",".",".",".",0,1,".",".",1,".",".",1,0,".",".",".",".",".",".",".",".",".","."],[".",".",".",".",1,".",1,".",".",".",".",3,".",".",".",".",3,".",".",".",".",".",1,".",0,".",".",1,".",".",".",1,".",1,1,"h",3,".",1,".",1,".",".",".",".",".",3,".",".",3,"/",5,"/",3,1,1],[".",".",".",2,".",2,2,".",".",".",".",0,".",0,".",".",".",0,".",".",".",".",".",".",".",".",".",0,".",".",2,2,".",".",".",".",".",".",".",2,".",".",".",2,".",".",0,".",0,".",".",".",".",".",0,"."],[0,2,3,".",".",".",3,".",".",".",".",".",0,".",".",".",".",".",0,".",".",2,".",".",".",".",".",".",".",2,".",2,".",".",".",".",".",".",3,".",".",".",3,".",".",".",".",0,".",".",".",".",".",".",".","."],[".",".",".",".",".",".",".",".",".",".",".",".",".",".",".",".",".",".",".",".",3,".",".",".",2,".",2,".",0,".",".",0,".",".",".",".",".",".",".",".",".",".",".",".",".",".",".",".",".",".",".",".",".",".",".","."],[".",".",".",".",".",".",".",".",".",".",3,".",".",".",".",".",".",".",".",".",".",".",".",".",".",".",".",".",".",".",".",".",".",".",".",".",".",".",".",".",".",".",".",".",".",".",3,".",".",".",".",".",".",".",".","."]],[[".",".",".",".",".",".",".",".",".",".",".",".",".",".",".",".",".",".",".",".",".",".",".",".",".",".",".",".",".",".",".",".",".",".",".",0,".",1,".",3,"/",5,3,".",".",".",0,0,0,"h",1,0,".",".",".",3,".",".",".",3,".",".","."],[".",".",1,".",3,"/",5,"/",3,1,3,".",".",3,".",3,"/",5,"/",3,1,".",".",".",".",1,".",3,"/",5,"/",3,1,3,".",3,".",".",0,".",".",".",1,".",".",".",".",1,".",".",".",".",3,".",".",0,".",".",".",".",0,".","."],[".",".",0,".",".",".",".",".",".",".",".",".",".",0,".",".",".",".",".",".",".",2,".",".",".",2,".",".",".",".",".",".",".",0,".",".",0,".",".",".",".",".",".",".",0,".",".",".",".",".",".",".",".",".",".",".",".",0,".",".",".",0,"."],[".",2,".",2,".",".",".",".",".",".",".",".",0,".",0,".",".",".",".",".",".",".",".",".",3,".",3,".",".",".",".",".",".",".",0,".",".",".",".",".",".",".",".",2,".",".",".",".",".",".",".",".",".",".",".",".",0,".",".",".",".",".",0],[3,".",".",".",".",".",".",".",".",".",".",2,".",".",".",".",".",".",".",".",".",".",".",".",".",".",".",".",".",".",".",".",".",".",".",".",".",".",".",".",".",".",3,".",".",".",".",".",".",".",".",".",".",".",".",".",".",".",".",".",".",".","."],[".",".",".",".",".",".",".",".",".",".",".",".",".",".",".",".",".",".",".",".",".",".",".",1,".",".",".",".",".",".",".",".",".",3,".",".",".",".",".",".",".",".",".",".",".",".",".",3,".",".",".",".",".",".",3,".",".",".",".",".",".",".","."]],[[".",".",".",".",0,0,0,"h",1,0,0,".",".",".",".",".",".",".",".",".",".",".",".",".",".",0,0,".",0,"h",1,0,".",".",3,".",".",".",3,".",".",".",".",".",".",".",0,0,0,"h",1,0,0,".",".",".",".",".","."],[1,".",".",".",".",1,".",".",".",".",".",".",".",".",3,3,".",".",".",".",".",".",".",".",".",".",1,".",".",".",".",".",3,".",0,".",".",".",".",0,".",".",".",1,".",".",".",1,".",".",".",".",".",".",".",3,3,".","."],[2,".",2,".",".",".",".",".",".",".",".",".",".",".",0,".",".",".",".",".",0,".",".",".",0,".",".",".",".",".",".",".",".",".",".",".",0,".",".",".",0,".",".",".",".",2,".",".",".",".",".",".",".",".",".",0,".",".","."],[".",3,".",".",".",".",".",".",".",".",".",".",".",0,".",".",".",".",".",0,".",".",".",2,".",".",".",".",".",".",".",".",".",".",".",0,".",".",".",".",".",0,".",2,3,".",".",".",".",".",".",".",".",".",0,".",".",".","."],[".",".",".",".",".",".",".",".",".",".",".",".",".",".",".",".",".",".",2,".",".",".",3,".",".",".",3,".",".",".",".",".",".",".",".",".",".",".",".",".",".",".",".",".",".",".",".",".",".",".",".",".",".",".",".",".",".",".",2],[1,".",".",".",".",1,".",".",".",".",".",3,".",".",".",".",".",3,".",".",".",".",".",".",".",".",".",".",".",".",".",".",".",3,".",".",".",".",".",".",".",".",".",1,".",".",".",".",".",".",".",".",".",3,".",".",".",3,"."]],[[".",".",".",".",".",".",5,5,5,3,".",".",".",".",0,".",".",".",".",".",0,0,0,3,".",".",".",".",".",".",0,".",".",".",".",".",0,1,".",".",1,".",".",1,0,".",".",".",".",".",".",".",".",".",".",".",".",".",".","."],[".",".",".",".",1,".",1,".",".",".",".",3,".",".",".",3,".",".",".",".",1,".",0,".",".",".",1,".",".",".",1,".",1,1,"h",3,".",1,".",1,".",".",".",".",".",3,".",".",3,"/",5,"/",3,1,1,".",".",".",1,"."],[".",".",".",2,".",2,2,".",".",".",".",0,".",0,".",".",0,".",".",".",".",".",".",".",".",".",0,".",".",2,2,".",".",".",".",".",".",".",2,".",".",".",2,".",".",0,".",0,".",".",".",".",".",0,".",".",".",0,".","."],[".",2,3,".",".",".",3,".",".",".",".",".",0,".",".",".",".",0,".",2,".",".",".",".",".",".",".",".",2,".",2,".",".",".",".",".",".",3,".",".",".",3,".",".",".",".",0,".",".",".",".",".",".",".",".",".",2,".",".","."],[".",".",".",".",".",".",".",".",".",".",".",".",".",".",".",".",".",".",3,".",".",".",2,".",".",2,".",0,".",".",0,".",".",".",".",".",".",".",".",".",".",".",".",".",".",".",".",".",".",".",".",".",".",".",".",3,".",".",".","."],[".",".",".",".",".",".",".",".",".",".",3,".",".",".",".",".",".",".",".",".",".",".",".",".",".",".",".",".",".",".",".",".",".",".",".",".",".",".",".",".",".",".",".",".",".",3,".",".",".",".",".",".",".",".",".",".",".",".",".","."]],[[".",".",".",".",".",".",".",".",0,".",".",0,3,"/",5,5,".",5,5,".",".",0,3,".",3,".",3,".",".",".",1,0,0,".",0,3,".",".",".",".",".",0,".",0,3,"/",5,5,5,".",".",5,0,3,".",".","."],[".",".",".",1,".",".",".",1,1,".",".",".",".",".",".",1,1,".",".",".",1,".",0,".",".",".",0,".",".",".",0,1,".",".",0,".",".",1,".",".",".",1,".",".",".",".",".",1,".",".",1,".",".",0,".",".",0],[".",".",0,".",".",".",0,".",3,".",".",".",".",".",".",".",".",".",".",".",".",".",".",".",".",".",".",".",".",".",".",".",".",".",".",".",".",".",".",".",2,2,".",".",".",".",".",".",".",".",".",".",".",".",".",0,"."],[".",2,".",".",".",2,".",".",2,".",2,".",".",".",".",3,".",".",".",3,".",".",".",".",".",0,".",".",".",".",".",".",".",".",".",".",".",".",".",2,".",2,".",".",".",".",".",3,".",3,".",".",".",".",0,".","."],[3,".",".",".",3,".",".",".",3,3,".",".",".",".",".",".",".",".",".",".",".",".",".",".",".",".",".",".",2,".",".",3,".",3,2,".",2,".",0,".",".",0,".",".",".",".",".",".",".",".",".",".",".",".",".",".","."],[".",".",".",".",".",".",".",".",".",".",".",".",".",".",".",".",".",".",".",".",".",".",3,".",".",".",".",3,".",".",".",".",".",".",".",".",".",".",".",".",".",".",".",".",".",".",".",".",".",".",".",".",".",3,".",".","."]],[[".",0,1,0,".",".",".",".",".",".",0,".",".",".",".",".",".",".",".",".",".",".",".",".",".",".",".",".",".",".",".",".",".",".",".",".",".",".",".",".",".",".",".",".",".",".",".",".",".",0,".",1,".",".",3,"/",5,3],[3,".",1,".",".",3,1,3,".",".",3,3,".",1,1,".",1,".",".",3,"/",5,"/",3,1,3,".",".",3,".",3,"/",5,"/",3,1,".",".",".",1,".",3,"/",5,"/",3,1,3,".",3,".",".",".",0,".",".",".",1],[".",".",".",".",".",0,".",".",".",".",".",".",".",0,".",".",0,".",".",".",".",".",".",".",".",".",".",".",0,".",".",".",".",".",".",".",2,".",".",2,".",".",".",".",".",".",".",0,".",".",0,".",".",".",".",".",".","."],[".",".",3,".",3,".",".",".",".",0,".",".",".",".",".",".",".",".",2,".",".",".",".",".",".",".",".",0,".",0,".",".",".",".",".",".",".",".",3,".",3,".",".",".",".",".",".",".",0,".",".",".",".",".",".",".",".","."],[".",".",".",".",".",".",".",".",".",".",".",".",".",".",".",3,".",3,".",".",".",".",".",".",".",".",2,".",".",".",".",".",".",".",".",".",".",".",".",".",".",".",".",".",".",".",".",".",".",".",".",".",".",".",".",".",".",3],[".",".",".",".",".",".",".",".",3,".",".",".",3,".",".",".",".",".",".",".",".",".",".",".",".",".",".",".",".",".",".",".",".",".",".",".",".",1,".",".",".",".",".",".",".",".",".",3,".",".",".",".",".",".",".",".",".","."]]],"numberofstrings":6,"notes":["E","B","G","D","A","E","B"],"capo":0,"stringnotes":["E4","B3","G3","D3","A2","E2"],"comments":["Stave 1:","","","","","","","",""],"timing":[[null,null,"W","W","W","W","W","W",null,"W","W","W",null,"W","W","W","W","W",null,"W",null,"W","W","W",null,null,null,null,null,null,"W","W","W","W","W","W","W","W","W","W","W","W",null,"W","W","W","W","W","W",null,"W","W","W","W","W",null,"W","W","W","W",null,null,"W","W","W","W"],[null,"W","W","W","W","W",null,"W",null,"W","W","W","W","W","W","W","W","W",null,"W","W","W","W","W","W","W",null,null,"W","W","W",null,"W","W","W","W","W","W","W",null,"W","W","W","W",null,"W","W","W",null,"W",null,"W","W",null,"W","W","W"],[null,"W","W","W","W",null,"W","W","W","W",null,"W","W","W",null,"W",null,"W",null,"W",null,"W","W","W","W",null,"W",null,"W","W",null,"W","W","W","W",null,"W","W","W","W","W","W","W",null,"W","W","W","W","W","W","W","W","W"],[null,"W","W","W","W","W","W","W","W","W","W","W","W","W","W",null,"W","W","W","W",null,"W","W","W","W","W","W","W","W","W","W","W","W",null,"W","W",null,"W","W","W","W","W","W","W","W","W","W","W","W","W","W",null,"W",null,"W","W","W"],[null,"W","W","W","W","W",null,"W",null,"W","W","W","W","W","W","W","W",null,"W",null,"W","W","W",null,"W","W","W","W","W",null,"W",null,"W","W","W","W","W",null,"W","W","W",null,"W","W",null,null,null,null,null,null,"W","W","W","W",null,"W","W","W","W",null,"W","W","W","W"],[null,"W","W","W",null,"W","W","W",null,"W","W","W","W",null,null,null,null,null,null,null,null,null,null,null,null,null,null,null,null,null,null,null,null,null,null,null,null,null,null,null,null,null,null,null,null,null,null,null,null,null,null,null,null,null,null,null,null,null,"W","W"],[null,"W","W","W","W","W","W","W","W","W","W","W","W","W","W","W","W","W","W","W","W","W","W","W","W",null,"W","W","W","W","W","W",null,"W","W",null,"W","W","W","W","W","W","W","W","W","W","W","W","W","W",null,"W",null,"W","W","W","W","W","W","W"],[null,"W","W","W","W","W","W","W","W","W","W","W","W","W",null,"W","W","W","W","W","W","W","W","W",null,"W","W","W","W","W",null,null,"W","W","W","W","W","W","W","W","W","W","W",null,"W","W",null,"W","W","W","W","W","W","W","W","W","W","W"],[null,"W","W","W","W","W","W","W","W","W","W","W","W","W","W","W","W","W","W","W","W",null,"W","W","W","W","W","W","W","W","W","W",null,"W",null,"W","W","W","W","W","W","W","W",null,"W",null,"W","W","W","W","W","W","W",null,"W","W",null,"W","W"]],"timingvisible":false,"tabcounter":58,"stave":8,"totalstaves":9,"instrument":"6guitar","selectedtuning":"6_standard","version":"13"}

Member for

1 week 3 days
Submitted by kevinpham on Fri, 2020-11-20 12:12