Sound will begin in 5 seconds

Up

Chords
01234567891011121314151617181920212223
E
B
G
D
A
E
B
0 1 2 3 4 5 6 7 8 9 10 11 12 13 14 15 16 17 18 19 20 21 22 23
Song Science #1: How Pros Use 6 Chords to Write Hit Songs
(/) Slide Up  (\) Slide Down  (h) Hammer On  (p) Pull Off  (b) Bend (r) Release (v) Vibrato

Stave 1:

E|--------------------------------------------------------------------------------------------------------------------------------------
B|--------------------------------------------------------------------------------------------------------------------------------------
G|-----6--------6-----------13--------6-----6-----6--6/9--6-----6/9--6-----6--------------6--------6-----------13--------6-----6-----6--
D|--7-----7--7-----7--7/14------14\7-----7-----7-------------7----------7-----7--7-----7-----7--7-----7--7/14------14\7-----7-----7-----
A|--------------------------------------------------------------------------------------------------------------------------------------
E|--------------------------------------------------------------------------------------------------------------------------------------

Stave 2:

E|-----------------------------------------------------------------------------------------------------------------------------
B|-----------------------------------------------------------------------------------------------------------------------------
G|--6/9--6-----6--9--6--------6-----6--------13-----13-----6-----6-----13-----13-----6-----6-----13-----13-----6-----6-----13--
D|----------------------7--7-----7-----7/14--14-----14-----7-----7-----14-----14-----7-----7-----14-----14-----7-----7-----14--
A|-----------------------------------------------------------------------------------------------------------------------------
E|-----------------------------------------------------------------------------------------------------------------------------

Stave 3:

E|----------------------------------------------------------------------------------------------------------------------------------------
B|----------------------------------------------------------------------------------------------------------------------------------------
G|--13-----6-----6-----18--18--18--18--18-----13--13--13--13--13--------------------------------------------------------------------------
D|--14-----7-----7-----19--19--19--19--19-----14--14--14--14--14----------7-----7h9--7-----7h9--7----------7-----7--7h9--7-----7h9--7-----
A|-------------------------------------------------------------------7h9-----9----------9----------9--7h9-----9-------------9----------9--
E|----------------------------------------------------------------------------------------------------------------------------------------

Stave 4:

E|-------------------------------------------------------------------------------------------------------------------------------------
B|-------------------------------------------------------------------------------------------------------------------------------------
G|------------------------7--6--7--6--6--7--6--6--------18--16--18--16------16--18--16--18--16------16--18--16--16--16--16--16--16/18--
D|--7h9--7----------7-----------------------------9/19------------------19----------------------19-------------------------------------
A|----------9--7h9-----9---------------------------------------------------------------------------------------------------------------
E|-------------------------------------------------------------------------------------------------------------------------------------

Stave 5:

E|--
B|--
G|--
D|--
A|--
E|--

http://www.guitartabcreator.com
Guitar Tab Creator is intended to store guitar tab created through the tool. It currently does not support in-line text editing. Any text you place in here will be lost. If you need to comment on your tab, please use the "Tab Notes" section located below.