Sound will begin in 5 seconds

Drifting Away

Chords
01234567891011121314151617181920212223
E
B
G
D
A
E
B
0 1 2 3 4 5 6 7 8 9 10 11 12 13 14 15 16 17 18 19 20 21 22 23
Song Science #1: How Pros Use 6 Chords to Write Hit Songs
(/) Slide Up  (\) Slide Down  (h) Hammer On  (p) Pull Off  (b) Bend (r) Release (v) Vibrato

Stave 1:

E|--------------------------------------------------------------------------------------------------
B|--------------------------------------------------------------------------------------------------
G|--------------------------------------------------------------------------------------------------
D|-----2-----------3----------------2-----------3----------------2-----------3----------------2-----
A|-3-3---0-0-3-5-5--------------3-3---0-0-3-5-5--------------3-3---0-0-3-5-5--------------3-3---0-0-
E|-------------------3-3-5-5----------------------3-3-5-5----------------------3-3-5-5--------------

Stave 2:

E|-----------------------8-----8-------7-----7-----5-----5-5-7-7-5-7-7-7------8-----8-------7-----7-
B|-------------------------8-----8---8---8-------6---6-----6-8-8-6-8-8-8--------8-----8---8---8-----
G|---------------------9-----9-----9-------9---7-------7---7-9-9-7-9-9-9----9-----9-----9-------9---
D|-------3------------------------------------------------------------------------------------------
A|-3-5-5--------------------------------------------------------------------------------------------
E|---------3-3-5/12---------------------------------------------------------------------------------

Stave 3:

E|-----5-----5-5-7-7-5-7-7-7------------------------------------------------------------------------
B|---6---6-----6-8-8-6-8-8-8------------------------------------------------------------------------
G|-7-------7---7-9-9-7-9-9-9------------------------------------------------------------------------
D|------------------------------------------------------------------------------------------------2-
A|----------------------------------------------------3-3-3-2-2-0-0-0-0-0---------------------3-3---
E|---------------------------11\1-1-1-1-1-1-3-3-3-3-3---------------------1-1-1-1-1-3-11\0----------

Stave 4:

E|--------------------------------------------------------------------------------------------------
B|--------------------------------------------------------------------------------------------------
G|--------------------------------------------------------------------------------------------------
D|-----------3----------------2-----------3----------------2-----------3----------------2-----------
A|-0-0-3-5-5--------------3-3---0-0-3-5-5--------------3-3---0-0-3-5-5--------------3-3---0-0-3-5-5-
E|-------------3-3-5-5----------------------3-3-5-5----------------------3-3-5-5--------------------

Stave 5:

E|-----------------8-----8-------7-----7-----5-----5-5-7-7-5-7-7-7------8-----8-------7-----7-----5-
B|-------------------8-----8---8---8-------6---6-----6-8-8-6-8-8-8--------8-----8---8---8-------6---
G|---------------9-----9-----9-------9---7-------7---7-9-9-7-9-9-9----9-----9-----9-------9---7-----
D|-3------------------------------------------------------------------------------------------------
A|--------------------------------------------------------------------------------------------------
E|---3-3-5/11---------------------------------------------------------------------------------------

Stave 6:

E|-----5-5-7-7-5-7-7-7-----------------------------------------------------------------------------
B|-6-----6-8-8-6-8-8-8-------------------------------------------------------------5-5-5-5-5-5-5-5-
G|---7---7-9-9-7-9-9-9-----------------------------------------------------------------------------
D|-------------------------------------------------------------------------------------------------
A|----------------------------------------------3-3-3-2-2-0-0-0-0-0--------------------------------
E|---------------------11\1-1-1-1-1-1-3-3-3-3-3---------------------1-1-1-1-1-3--------------------

Stave 7:

E|---------------------------------------------3---------------------------------------
B|-5-5----------------8-10/12-10-8\5-5/8v-8\5v---5-3-5p3-------------------------------
G|-----5-4v-4-5-7-7/9------------------------------------5-----------------------7-----
D|---------------------------------------------------------5v-5-7-9-9-9h10-9-7h9---9\5-
A|-------------------------------------------------------------------------------------
E|-------------------------------------------------------------------------------------

Stave 8:

E|-------------------------------------------------------------------------------------------
B|---------------8-----8---8---8/10-8-8-8-----8------8------------------8-8/10-8-8-----------
G|-----4-5-5/9-9---5/9---9---9------------9-9---9v-9---9v-9\4-4-5-7-9-9------------9-4/7-7-7-
D|-5-7---------------------------------------------------------------------------------------
A|-------------------------------------------------------------------------------------------
E|-------------------------------------------------------------------------------------------

Stave 9:

E|-----------
B|-----------
G|-7-7-7-7/9-
D|-----------
A|-----------
E|-----------

http://www.guitartabcreator.com
Guitar Tab Creator is intended to store guitar tab created through the tool. It currently does not support in-line text editing. Any text you place in here will be lost. If you need to comment on your tab, please use the "Tab Notes" section located below.