Sound will begin in 5 seconds

B Bender Bounce

01234567891011121314151617181920212223
E
B
G
D
A
E
B
0 1 2 3 4 5 6 7 8 9 10 11 12 13 14 15 16 17 18 19 20 21 22 23
Song Science #1: How Pros Use 6 Chords to Write Hit Songs
(/) Slide Up  (\) Slide Down  (h) Hammer On  (p) Pull Off  (b) Bend (r) Release (v) Vibrato

Stave 1:

E|-------7----------1-------------------------------------------------------------------------------
B|--6b8-----8r6--------3r1--------0-------------------------0----------8-------------10------10b12--
G|---------------7----------4--3--------0--------0-------3----------7------------12------12---------
D|-----------------------------------4--------0-----4/5--------8/9--------11/12---------------------
G|-----------------------------------------4--------------------------------------------------------
D|--------------------------------------------------------------------------------------------------

Stave 2:

E|--3--------------------------------------------------------------------------
B|-----1r0---------------------------------------------------------------------
G|----------3p0-----0-------3p0-----5-----3-------------------------0----------
D|---------------4-----3/5-------5-----5-------------3p0-----0h2h3-----2h3--2--
G|-------------------------------------------0--3/4-------4--------------------
D|-----------------------------------------------------------------------------

Stave 3:

E|----------------------------------------------------------------
B|---b6r6---------------------------------3--1-----1-----1--------
G|--0------7--5--3--4---------------------------4-----4--------0--
D|---------------------5----------0--4/5--------------------3-----
G|------------------------0--3/4----------------------------------
D|----------------------------------------------------------------

http://www.guitartabcreator.com
Guitar Tab Creator is intended to store guitar tab created through the tool. It currently does not support in-line text editing. Any text you place in here will be lost. If you need to comment on your tab, please use the "Tab Notes" section located below.