Sound will begin in 5 seconds

Wild Adriatic - The Spark

Chords
01234567891011121314151617181920212223
E
B
G
D
A
E
B
0 1 2 3 4 5 6 7 8 9 10 11 12 13 14 15 16 17 18 19 20 21 22 23
Song Science #1: How Pros Use 6 Chords to Write Hit Songs
(/) Slide Up  (\) Slide Down  (h) Hammer On  (p) Pull Off  (b) Bend (r) Release (v) Vibrato

Stave 1:

E|---------------------------------------|------------------------------------------------|--
B|---------------------------------------|------------------------------------------------|--
G|---------------------------------------|-------------------------5----------------------|--
D|-------3-------------------------------|---------3---------3--7-----7--5--3--5--3-------|--
A|--5---------5------3h5-------3----5----|--3h5---------5----------------------------5----|--
E|------------------------3--------------|------------------------------------------------|--

Stave 2:

E|-------------------------------------------|--
B|-------------------------------------------|--
G|--7--------------------3--3--3--5--5--5----|--
D|--7--------------------3--3--3--5--5--5----|--
A|--5--------------------1--1--1--3--3--3----|--
E|-------------------------------------------|--

Stave 3:

E|----------------------5------|-----------------5---------|--
B|-----------------6-----------|------------6--------------|--
G|------------7----------------|----------------------7----|--
D|-----------------------------|---------------------------|--
A|-----------------------------|---------------------------|--
E|-----------------------------|---------------------------|--

Stave 4:

E|-------------------------------------------|--------------------------------------------------------|--
B|-------------------------------------------|----------------------------------13b17r15p13b17r15p13--|--
G|--7----------------10--10--10------10--12--|--14--12--10--------------12--14------------------------|--
D|--7----------------12--12--12--12----------|--------------12----------------------------------------|--
A|--5----------------------------------------|--------------------------------------------------------|--
E|-------------------------------------------|--------------------------------------------------------|--

Stave 5:

E|----------------------------10------------|----------------------------------10----------|--
B|--17--13----------------10--13--13----10--|--13--10--------------------------13----------|--
G|----------14------------------------------|----------12--14--12--------------------------|--
D|------------------------------------------|----------------------12----------------------|--
A|------------------------------------------|----------------------------------------------|--
E|------------------------------------------|----------------------------------------------|--

Stave 6:

E|-------|-----------------------------------------------------|------------------------
B|-------|-----------------------------------------------------|------------------------
G|-------|------5----------------------5------------5----------|------5----------7------
D|----3--|--/7-----7p5--3h5p3-----3/7-----7p5--3/7-----7p5--3--|--/7-----7p5--3---------
A|-------|---------------------5-------------------------------|------------------------
E|-------|-----------------------------------------------------|------------------------

Stave 7:

E|-------------------------------------------------
B|-------------------------------------------------
G|----7----7p5-----7----7p5-----7----7p5-------10--
D|--------------7------------7------------7--------
A|-------------------------------------------------
E|-------------------------------------------------

http://www.guitartabcreator.com
Guitar Tab Creator is intended to store guitar tab created through the tool. It currently does not support in-line text editing. Any text you place in here will be lost. If you need to comment on your tab, please use the "Tab Notes" section located below.