Sound will begin in 5 seconds

Sponge Cola - Coda (solo)

Chords
01234567891011121314151617181920212223
E
B
G
D
A
E
B
0 1 2 3 4 5 6 7 8 9 10 11 12 13 14 15 16 17 18 19 20 21 22 23
Song Science #1: How Pros Use 6 Chords to Write Hit Songs
(/) Slide Up  (\) Slide Down  (h) Hammer On  (p) Pull Off  (b) Bend (r) Release (v) Vibrato

Stave 1:

E|------------------------------------------------------------------------4--4--7--4--7--
B|------------------------------------------------------------------------4--4--7--4--7--
G|-----------------------------------4--4--4-----4-----4--4--6--6b9b6--4-----------------
D|------------------------------4h6-----------6-----6------------------------------------
A|--7/9--7--6--6--7--6-------------------------------------------------------------------
E|----------------------7--7/9-----------------------------------------------------------

Stave 2:

E|---------12------11------9-----9/11--9--7--7-------9-----11--14--
B|--11h12------12------12-----7------------------------------------
G|----------------------------------------------8h9-----9------11--
D|-----------------------------------------------------------------
A|-----------------------------------------------------------------
E|-----------------------------------------------------------------

http://www.guitartabcreator.com
Guitar Tab Creator is intended to store guitar tab created through the tool. It currently does not support in-line text editing. Any text you place in here will be lost. If you need to comment on your tab, please use the "Tab Notes" section located below.