Sound will begin in 5 seconds

Moonstar88 - Di Kasi (solo)

01234567891011121314151617181920212223
E
B
G
D
A
E
B
0 1 2 3 4 5 6 7 8 9 10 11 12 13 14 15 16 17 18 19 20 21 22 23
Song Science #1: How Pros Use 6 Chords to Write Hit Songs
(/) Slide Up  (\) Slide Down  (h) Hammer On  (p) Pull Off  (b) Bend (r) Release (v) Vibrato

Stave 1:

E|-------------------------------------------------------------------------------
B|-------------------------------------------------------------------------------
G|----------------------9--9b11--9-----------------------------------------------
D|-----7--9--11--9--11--------------11--9--7-----7--9--7--11--9--11--------11\7--
A|--9-----------------------------------------9----------------------------------
E|-------------------------------------------------------------------------------

Stave 2:

E|-----------------------------------------------------------------
B|-----------------------------------------------------------------
G|----------------------9--9b11--9------------------------------9--
D|-----7--9--11--9--11--------------11p9p7--9p7-----7--7--9/11-----
A|--9--------------------------------------------9-----------------
E|-----------------------------------------------------------------

Stave 3:

E|----------------------------------|--------------------------------------------
B|----------------------------------|--12p10------14b15b14--12p10------14b15b14--
G|-------------------------9h11--9--|---------11-------------------11------------
D|-------7--------9--9/11-----------|--------------------------------------------
A|--7h9-----------------------------|--------------------------------------------
E|----------------------------------|--------------------------------------------

Stave 4:

E|------------------------------------------------------------------------------------------
B|--12p10------12p10------14b15b14--12p10------14b15b14--12p10--12p10--12p10------14b15b14--
G|---------11---------11-------------------11---------------------------------11------------
D|------------------------------------------------------------------------------------------
A|------------------------------------------------------------------------------------------
E|------------------------------------------------------------------------------------------

Stave 5:

E|------14--17--19/20--19--17------17--
B|--14-------------------------18------
G|-------------------------------------
D|-------------------------------------
A|-------------------------------------
E|-------------------------------------

http://www.guitartabcreator.com
Guitar Tab Creator is intended to store guitar tab created through the tool. It currently does not support in-line text editing. Any text you place in here will be lost. If you need to comment on your tab, please use the "Tab Notes" section located below.