Sound will begin in 5 seconds

Eraserheads - Minsan (solo)

01234567891011121314151617181920212223
E
B
G
D
A
E
B
0 1 2 3 4 5 6 7 8 9 10 11 12 13 14 15 16 17 18 19 20 21 22 23
Song Science #1: How Pros Use 6 Chords to Write Hit Songs
(/) Slide Up  (\) Slide Down  (h) Hammer On  (p) Pull Off  (b) Bend (r) Release (v) Vibrato

Stave 1:

E|-----------------------------------------------------------------------------------
B|-----------------------------------------------------------------------------------
G|-----------------------------------------------------------------------------------
D|----------------------4----------------------------------------------------5/7--5--
A|--0/5--5--5--5--7--5-----5--------0--2--2/3--3--3--3--3--3--3--2--0-----5----------
E|----------------------------5--2-------------------------------------3-------------

Stave 2:

E|------------------------------------------------------------------------------------------
B|---------------------------------7h8h7-----------8--8/11--10h11h10--11/13--11--10---------
G|-------------------5/7--7--9--7---------9--7--7------------------------------------12--9--
D|--5--7--7/8--7--8-------------------------------------------------------------------------
A|------------------------------------------------------------------------------------------
E|------------------------------------------------------------------------------------------

Stave 3:

E|--------------14----------14----------15----------------------14----------14----------
B|------------------14----------14----------15----------12--15------14----------14------
G|--7--6----------------14----------14----------16--12------------------14----------14--
D|--------9--7--------------------------------------------------------------------------
A|--------------------------------------------------------------------------------------
E|--------------------------------------------------------------------------------------

Stave 4:

E|--15----------15h17--15--12--12/14--12/14--12--10--9--10h12--10p9--10----------------
B|------15---------------------------------------------------------------11--8--7b8b7--
G|----------16-------------------------------------------------------------------------
D|-------------------------------------------------------------------------------------
A|-------------------------------------------------------------------------------------
E|-------------------------------------------------------------------------------------

Stave 5:

E|-------------------------------
B|-------------------------------
G|--9b11--------9b11--9--9p7--6--
D|-------------------------------
A|-------------------------------
E|-------------------------------

http://www.guitartabcreator.com
Guitar Tab Creator is intended to store guitar tab created through the tool. It currently does not support in-line text editing. Any text you place in here will be lost. If you need to comment on your tab, please use the "Tab Notes" section located below.