Sound will begin in 5 seconds

Summer Diddy 2

Chords
01234567891011121314151617181920212223
E
B
G
D
A
E
B
0 1 2 3 4 5 6 7 8 9 10 11 12 13 14 15 16 17 18 19 20 21 22 23
Song Science #1: How Pros Use 6 Chords to Write Hit Songs
(/) Slide Up  (\) Slide Down  (h) Hammer On  (p) Pull Off  (b) Bend (r) Release (v) Vibrato

Capo Fret 3

Stave 1:

E |---------------0----------------------------------------0---------------------------
A |------------------0-------------------4\2----------0h2-----2p0----------------0-----
E |----------0h4--------4\2p0--------------------0h4---------------4/5p0------------0--
A |-----0h5-----------------------2/4p0-------0---------------------------0h2/4--------
Gb|------------------------------------------------------------------------------------
Db|--0-------------------------0-------------------------------------------------------

Stave 2:

E |---------------0----------------------------------------0h4/5p0------------7/9p0--
A |------------------0-------------------4\2----------0h2--------------0h4/5---------
E |----------0h4--------4\2p0--------------------0h4---------------------------------
A |-----0h5-----------------------2/4p0-------0---------------------0----------------
Gb|----------------------------------------------------------------------------------
Db|--0-------------------------0-----------------------------------------------------

Stave 3:

E |---------------0-----------------------0------------------0------------------0----------
A |------------------0-----------------------0----------0h4-----4p0----------0-----0-------
E |----------0h2--------2p0----------0h4-----------0h2------------------2h4-----------4/5--
A |-----0h4---------------------0h2--------------------------------------------------------
Gb|--0-----------------------0-------------------------------------------------------------
Db|---------------------------------------------0--------------------2---------------------

Stave 4:

E |--0--0--0--0-----------------4h5p4\2p0-----0---------0----------------------
A |--0--0--0--0----------------------------------0h2h4-----4p2p0-----0---------
E |--5--2--4--0--0h2p0--------------------------------------------4-----0h2h4--
A |--0--0--0--0---------4p0----------------------------------------------------
Gb|---------------------------------------------------------------------------
Db|-------------------------0-------------0-----------------------------------

Stave 5:

E |--0--0--0--0---------------------------------------------
A |--0--0--0--0---------------------------------------------
E |--5--2--4--0--0h2p0--------------------------------0-----
A |--0--0--0--0---------4p0-----4h5p4\2p0-----0----------0--
Gb|---------------------------------------------2/3--------
Db|-------------------------0-------------0----------------

http://www.guitartabcreator.com
Guitar Tab Creator is intended to store guitar tab created through the tool. It currently does not support in-line text editing. Any text you place in here will be lost. If you need to comment on your tab, please use the "Tab Notes" section located below.