Sound will begin in 5 seconds

In C

01234567891011121314151617181920212223
E
B
G
D
A
E
B
0 1 2 3 4 5 6 7 8 9 10 11 12 13 14 15 16 17 18 19 20 21 22 23
Song Science #1: How Pros Use 6 Chords to Write Hit Songs
(/) Slide Up  (\) Slide Down  (h) Hammer On  (p) Pull Off  (b) Bend (r) Release (v) Vibrato

Stave 1:

E|-----
B|-----
G|-----
D|--2--
A|-----
E|-----

Stave 2:

E|-----------
B|-----------
G|-----------
D|--2--3--2--
A|-----------
E|-----------

Stave 3:

E|-----------
B|-----------
G|-----------
D|--2--3--2--
A|-----------
E|-----------

Stave 4:

E|-----------
B|-----------
G|-----------
D|--2--3--5--
A|-----------
E|-----------

Stave 5:

E|-----------
B|-----------
G|-----------
D|--2--3--5--
A|-----------
E|-----------

Stave 6:

E|--------
B|--------
G|--5--5--
D|--------
A|--------
E|--------

Stave 7:

E|-----------
B|-----------
G|-----------
D|-----------
A|--3--3--3--
E|-----------

Stave 8:

E|--------
B|--------
G|--0-----
D|-----3--
A|--------
E|--------

Stave 9:

E|--------
B|--0-----
G|-----0--
D|--------
A|--------
E|--------

Stave 10:

E|--------
B|--0-----
G|-----0--
D|--------
A|--------
E|--------

Stave 11:

E|--------------------
B|--------0-----0-----
G|-----0-----0-----0--
D|--3-----------------
A|--------------------
E|--------------------

Stave 12:

E|--------------
B|--------0--1--
G|-----0--------
D|--3-----------
A|--------------
E|--------------

Stave 13:

E|--------------------
B|--0-----------------
G|-----0--0-----0--0--
D|-----------3--------
A|--------------------
E|--------------------

Stave 14:

E|--------------
B|--1--0--------
G|--------0--1--
D|--------------
A|--------------
E|--------------

Stave 15:

E|-----
B|-----
G|--0--
D|-----
A|-----
E|-----

Stave 16:

E|--------------
B|-----0--1--0--
G|--0-----------
D|--------------
A|--------------
E|--------------

Stave 17:

E|-------------
B|--0h1p0h1p0--
G|-------------
D|-------------
A|-------------
E|-------------

Stave 18:

E|--------------------
B|--------------------
G|--------------------
D|--2--4--2--3--2--2--
A|--------------------
E|--------------------

Stave 19:

E|--3--
B|-----
G|-----
D|-----
A|-----
E|-----

Stave 20:

E|--------------------------------
B|--------------------------------
G|--------------------------------
D|--------------------3-----3-----
A|--2--4--2--3-----3-----2-----2--
E|--------------3-----------------

Stave 21:

E|-----
B|-----
G|-----
D|--4--
A|-----
E|-----

Stave 22:

E|-----------------------------
B|-----------------------------
G|-----------------------------
D|--2--2--2--2--2--4--5--7--9--
A|-----------------------------
E|-----------------------------

Stave 23:

E|-----------------------------
B|-----------------------------
G|-----------------------------
D|--2--4--5--5--5--5--5--7--9--
A|-----------------------------
E|-----------------------------

Stave 24:

E|-----------------------------
B|-----------------------------
G|-----------------------------
D|--2--4--3--3--3--3--5--7--9--
A|-----------------------------
E|-----------------------------

Stave 25:

E|-----------------------------
B|-----------------------------
G|-----------------------------
D|--2--4--5--7--7--7--7--7--9--
A|-----------------------------
E|-----------------------------

Stave 26:

E|-----------------------------
B|-----------------------------
G|-----------------------------
D|--2--4--5--7--9--9--9--9--9--
A|-----------------------------
E|-----------------------------

Stave 27:

E|-----------------------------------
B|-----------------------------------
G|-----------------------------------
D|--2--4--2--4--5--2--5--3--2--3--2--
A|-----------------------------------
E|-----------------------------------

Stave 28:

E|--------------------
B|--------------------
G|--------------------
D|--2--4--2--3--2--2--
A|--------------------
E|--------------------

Stave 29:

E|-----------
B|-----------
G|--------5--
D|--2--5-----
A|-----------
E|-----------

Stave 30:

E|-----
B|-----
G|--5--
D|-----
A|-----
E|-----

Stave 31:

E|--------------------
B|--------------------
G|-----------4-----4--
D|--5--3--5-----5-----
A|--------------------
E|--------------------

Stave 32:

E|--------------------------
B|--------------------------
G|--------------4-----------
D|--3--5--3--5-----3--3--5--
A|--------------------------
E|--------------------------

Stave 33:

E|--------
B|--------
G|--------
D|--5--3--
A|--------
E|--------

Stave 34:

E|--------
B|--------
G|--------
D|--5--3--
A|--------
E|--------

Stave 35:

E|-----------------------------------3--5--3--3--10--5--3--0--3--2--2--0--0--1--
B|------------------------------------------------------------------------------
G|--------4-----4-----4-----4-----4---------------------------------------------
D|--3--5-----5-----5-----5-----5------------------------------------------------
A|------------------------------------------------------------------------------
E|------------------------------------------------------------------------------

Stave 36:

E|--------------------
B|--------------------
G|--------4-----4-----
D|--3--5-----5-----5--
A|--------------------
E|--------------------

Stave 37:

E|--------
B|--------
G|--------
D|--3--5--
A|--------
E|--------

Stave 38:

E|-----------
B|-----------
G|--------4--
D|--3--5-----
A|-----------
E|-----------

Stave 39:

E|--------------------
B|--------------------
G|--4-----------4--5--
D|-----5--3--5--------
A|--------------------
E|--------------------

Stave 40:

E|--------
B|--------
G|--4-----
D|-----3--
A|--------
E|--------

Stave 41:

E|--------
B|--------
G|--4-----
D|-----5--
A|--------
E|--------

Stave 42:

E|--------------
B|--------------
G|--5--4--2--5--
D|--------------
A|--------------
E|--------------

Stave 43:

E|--1--0--1--0--0--0--0--1--0--
B|-----------------------------
G|-----------------------------
D|-----------------------------
A|-----------------------------
E|-----------------------------

Stave 44:

E|--1--0--0--1-----
B|--------------0--
G|-----------------
D|-----------------
A|-----------------
E|-----------------

Stave 45:

E|--------0--
B|--3--3-----
G|-----------
D|-----------
A|-----------
E|-----------

Stave 46:

E|--------0--------------------0-----
B|-----3-----3--------------3-----3--
G|--0-----------0--0--0--0-----------
D|-----------------------------------
A|-----------------------------------
E|-----------------------------------

Stave 47:

E|-----0-----
B|--3-----3--
G|-----------
D|-----------
A|-----------
E|-----------

Stave 48:

E|--------------
B|--------------
G|--------------
D|--5--5--3--3--
A|--------------
E|--------------

Stave 49:

E|--------------------
B|--------------------
G|--------------------
D|--3--5--8--5--9--5--
A|--------------------
E|--------------------

Stave 50:

E|--------
B|--------
G|--------
D|--3--5--
A|--------
E|--------

Stave 51:

E|-----------
B|-----------
G|-----------
D|--3--5--8--
A|-----------
E|-----------

Stave 52:

E|--------
B|--------
G|--------
D|--5--8--
A|--------
E|--------

Stave 53:

E|--------
B|--------
G|--------
D|--8--5--
A|--------
E|--------

http://www.guitartabcreator.com
Guitar Tab Creator is intended to store guitar tab created through the tool. It currently does not support in-line text editing. Any text you place in here will be lost. If you need to comment on your tab, please use the "Tab Notes" section located below.