Sound will begin in 5 seconds

Sweet Emotion (Lead guitar from 3.03)

Chords
01234567891011121314151617181920212223
E
B
G
D
A
E
B
0 1 2 3 4 5 6 7 8 9 10 11 12 13 14 15 16 17 18 19 20 21 22 23
Song Science #1: How Pros Use 6 Chords to Write Hit Songs
(/) Slide Up  (\) Slide Down  (h) Hammer On  (p) Pull Off  (b) Bend (r) Release (v) Vibrato

Stave 1:

E|-----------------|--------------------|---------------------------------------|--
B|-----------------|--------------------|---------------------------------------|--
G|-----------------|--------0-----------|---------------------------------------|--
D|--------2--------|--------0-----2-----|-----0h2p0h2p0-----2p0-----------------|--
A|-----------------|--------------------|------------------------2-----0--------|--
E|--0--------------|--0-----------------|--0---------------------------------3--|--

Stave 2:

E|-------------------------------------------|--------------------------------0--|--
B|-------------------------------------------|--3-----3-----3--------------------|--
G|-------------------------------------------|--4--4-----4-----4--2b3r2p0--------|--
D|--2-----0h2p0h2p0h2p0h2p0h2p0h2p0h2p0h2p0--|-----------------------------2-----|--
A|-------------------------------------------|-----------------------------------|--
E|-------------------------------------------|-----------------------------------|--

Stave 3:

E|-------------------------------0--|------------------------------------------|--
B|-------3-----3-----3-----------0--|-------3-----3----------5-----------5-----|--
G|--2/4-----4-----4-----2b3r2p0-----|--2/4-----4-----4--4/6-----6--6--6-----6--|--
D|-------------------------------2--|------------------------------------------|--
A|----------------------------------|------------------------------------------|--
E|----------------------------------|------------------------------------------|--

Stave 4:

E|-----6-----6-----6-----6-----6-----6--6--------|--16------16------16------------------------|--
B|-----5-----5-----5-----5-----5-----5--5--------|------15------15------15------------12------|--
G|--6-----6-----6-----6-----6-----6-----6--------|-----------------------------14b16----------|--
D|-----------------------------------------------|----------------------------------------14--|--
A|-----------------------------------------------|--------------------------------------------|--
E|-----------------------------------------------|--------------------------------------------|--

Stave 5:

E|--16------16------16-----------------12---------|--
B|------15------15------15--15-----12------15b17--|--
G|--------------------------14b16-----------------|--
D|------------------------------------------------|--
A|------------------------------------------------|--
E|------------------------------------------------|--

Stave 6:

E|------------16------16------17------17------18------18------|--19------19------19--19--19--19b22--|--
B|-----12/15------15------15------16------16------17------17--|------18------18---------------------|--
G|------------------------------------------------------------|-------------------------------------|--
D|------------------------------------------------------------|-------------------------------------|--
A|------------------------------------------------------------|-------------------------------------|--
E|------------------------------------------------------------|-------------------------------------|--

Stave 7:

E|-----------7-----7-----7--7--7--7--|-----------------------------------------------------|--
B|--9-----9--7-----7-----7--7--7--7--|--10--10--10--10--10-----10--9-----9--9--------------|--
G|--9-----9--7-----7-----7--7--7--7--|--7---7---7---7---7------7---9-----9--9--------------|--
D|--9-----9--7-----7-----7--7--7--7--|--9---9---9---9---9------9---9-----9--9--------------|--
A|--7-----7--7-----7-----7--7--7--7--|--7---7---7---7---7------7---7-----7--7--------------|--
E|-----------------------------------|-----------------------------------------0--0--0--0--|--

Stave 8:

E|-----------------------------7--7--7--7--|---------------------------------
B|--------------9-----7-----7--7--7--7--7--|--10--10--10--10--10--10--10--9--
G|--------7-----9-----7-----7--7--7--7--7--|--9---9---9---9---9---9---9---9--
D|--------7-----9-----7-----7--7--7--7--7--|--9---9---9---9---9---9---9---9--
A|--------------7-----7-----7--7--7--7--7--|--7---7---7---7---7---7---7---7--
E|--0--------------------------------------|---------------------------------

Stave 9:

E|------------------------------------------|--------------------------------------------------|--
B|--15b17-----15--12--14--14b15-----14--12--|------12------------------------------------------|--
G|------------------------------------------|--14---------12-----------------------------------|--
D|------------------------------------------|--------------------14--12--11--------11--11--11--|--
A|------------------------------------------|--------------------------------------------------|--
E|------------------------------------------|--------------------------------------------------|--

Stave 10:

E|---------------------------------------------------|----------------------------------------------|--
B|--15b17-----17b15--12--14--14b15-----14b15r14--12--|------12-------------15-----------------------|--
G|---------------------------------------------------|--14---------12----------14b16r14--12--14b15--|--
D|---------------------------------------------------|-----------------14---------------------------|--
A|---------------------------------------------------|----------------------------------------------|--
E|---------------------------------------------------|----------------------------------------------|--

Stave 11:

E|-------------------------------------------------|--------------------15b17--------15b17r15--|--
B|--15b17-----17r15p12--14--14b15-----14b15r14p12--|------12-----------------------------------|--
G|-------------------------------------------------|--14---------12----------------------------|--
D|-------------------------------------------------|-------------------------------------------|--
A|-------------------------------------------------|-------------------------------------------|--
E|-------------------------------------------------|-------------------------------------------|--

Stave 12:

E|---------------------------------------------------|--------------------------------------|--
B|--15b17-----17r15--12--14--14b15-----14b15r14--12--|------12------------------------------|--
G|---------------------------------------------------|--14---------12-----------------------|--
D|---------------------------------------------------|-----------------14--12--11-----------|--
A|---------------------------------------------------|--------------------------------------|--
E|---------------------------------------------------|--------------------------------------|--

Stave 13:

E|--12-----12----------10-----10----------|--5-----5b7--------------------|--
B|--12-----12-----5/7--10-----10-----2/5--|--5----------------------------|--
G|----------------------------------------|-------------------------------|--
D|----------------------------------------|-------------------------------|--
A|----------------------------------------|-------------------------------|--
E|----------------------------------------|----------------0--------------|--

Stave 14:

E|--14b16--12--14------12-------------12----------|---------------------------------------------|--
B|-----------------14------12--15b17------15--12--|--------------------------12--15-------------|--
G|------------------------------------------------|--15p14p12--14--12p13-------------12p13------|--
D|------------------------------------------------|-----------------------------------------14--|--
A|------------------------------------------------|---------------------------------------------|--
E|------------------------------------------------|---------------------------------------------|--

Stave 15:

E|--------------------------------------------------|-----
B|--------------------------------------------------|-----
G|--------------------------------------------------|-----
D|-----12---------------------14--------------------|-----
A|---------14--13p12--------------------------------|-----
E|--------------------15--12------------------------|--0--

http://www.guitartabcreator.com
Guitar Tab Creator is intended to store guitar tab created through the tool. It currently does not support in-line text editing. Any text you place in here will be lost. If you need to comment on your tab, please use the "Tab Notes" section located below.