Sound will begin in 5 seconds

Blues Saraceno - Evil Ways (2.14 - 2.50)

Chords
01234567891011121314151617181920212223
E
B
G
D
A
E
B
0 1 2 3 4 5 6 7 8 9 10 11 12 13 14 15 16 17 18 19 20 21 22 23
Song Science #1: How Pros Use 6 Chords to Write Hit Songs
(/) Slide Up  (\) Slide Down  (h) Hammer On  (p) Pull Off  (b) Bend (r) Release (v) Vibrato

Stave 1:

E|--------10----10-----------|-------------------------------|--------------------------|--
B|--8/10------8/10-----------|-----------15\13-----11\10-----|--------------------------|--
G|---------------------------|-------------------------------|--9/10--------------------|--
D|---------------------------|-------------------------------|--------------------------|--
A|---------------------------|-------------------------------|--------------------------|--
E|---------------------------|-------------------------------|--------------------------|--

Stave 2:

E|--------------------------|------------------------------|---------------------------|--
B|--------------------------|--------5/6-5-----------------|---------------------------|--
G|--------------------------|--------5-7\5-----------------|-----7\5-7-----------------|--
D|-----------------3\2/3\2--|--0---------------------------|-----7-6/7-----------------|--
A|--------------------------|------------------------------|---------------------------|--
E|--------------------------|------------------------------|---------------------------|--

Stave 3:

E|-----------------------|--------------------------|-----------------------------|--------------------|--
B|-----------------------|--------------------------|----------5-----6--------6-5\|--3-----------------|--
G|--------5/7-5----------|--------------------------|--5/7-----5-----5------------|--------------------|--
D|--------5-7/5--------5/|--7-----------------------|--5-7--------7-----------6\5-|--3-----------------|--
A|---------------------3-|--5-----------------------|-----------------------------|--------------------|--
E|-----------------------|--------------------------|-----------------------------|--------------------|--

Stave 4:

E|--_-
B|--8-/
G|--10-
D|--_-
A|--_-
E|--_-

http://www.guitartabcreator.com
Guitar Tab Creator is intended to store guitar tab created through the tool. It currently does not support in-line text editing. Any text you place in here will be lost. If you need to comment on your tab, please use the "Tab Notes" section located below.