Sound will begin in 5 seconds

What is this scale?

01234567891011121314151617181920212223
E
B
G
D
A
E
B
0 1 2 3 4 5 6 7 8 9 10 11 12 13 14 15 16 17 18 19 20 21 22 23
Song Science #1: How Pros Use 6 Chords to Write Hit Songs
(/) Slide Up  (\) Slide Down  (h) Hammer On  (p) Pull Off  (b) Bend (r) Release (v) Vibrato

Stave 1:

E|--------------------------------------------2--3--6--7--
B|-----------------------------------2--3--5--------------
G|-----------------------------3--4-----------------------
D|--------------------2--4--5-----------------------------
A|--------1--2--4--5--------------------------------------
E|--2--3--------------------------------------------------

Stave 2:

E|------------------------------------------------------------------
B|--12--11----------------------------------------------------------
G|----------12--11--------------------------------------------------
D|------------------14--12--11--------------------------------------
A|------------------------------14--13--10--9--7--5--4--2--1--------
E|------------------------------------------------------------3--2--

http://www.guitartabcreator.com
Guitar Tab Creator is intended to store guitar tab created through the tool. It currently does not support in-line text editing. Any text you place in here will be lost. If you need to comment on your tab, please use the "Tab Notes" section located below.