Sound will begin in 5 seconds

Trying to find this scale

01234567891011121314151617181920212223
E
B
G
D
A
E
B
0 1 2 3 4 5 6 7 8 9 10 11 12 13 14 15 16 17 18 19 20 21 22 23
Song Science #1: How Pros Use 6 Chords to Write Hit Songs
(/) Slide Up  (\) Slide Down  (h) Hammer On  (p) Pull Off  (b) Bend (r) Release (v) Vibrato

Stave 1:

E|------------------------------------------------------------------
B|--12--11--12--14--15--14--12--14--17--15--14--15--12--14--15--14--
G|------------------------------------------------------------------
D|------------------------------------------------------------------
A|------------------------------------------------------------------
E|------------------------------------------------------------------

Stave 2:

E|--14--------------14--------------15--------------15--------------14--------------14--------------
B|------15--14--15------15--14--15------17--15--17------17--15--17------15--14--15------15--14--15--
G|--------------------------------------------------------------------------------------------------
D|--------------------------------------------------------------------------------------------------
A|--------------------------------------------------------------------------------------------------
E|--------------------------------------------------------------------------------------------------

Stave 3:

E|--12--------------12--------------
B|------14--12--14------14--12--14--
G|----------------------------------
D|----------------------------------
A|----------------------------------
E|----------------------------------

Stave 4:

E|-----14--------------14--------------15--------------15--------------14--------------14--------------
B|---------15--14--12------15--14--12------17--15--14------17--15--14------15--14--12------15--14--12--
G|-----------------------------------------------------------------------------------------------------
D|-----------------------------------------------------------------------------------------------------
A|-----------------------------------------------------------------------------------------------------
E|-----------------------------------------------------------------------------------------------------

Stave 5:

E|--12--------------12--------------
B|------14--12--14------14--12--11--
G|----------------------------------
D|----------------------------------
A|----------------------------------
E|----------------------------------

Stave 6:

E|--------------------------------------------------------------------------------------------------
B|--11--12--11------11------------------------------------------------------------------------------
G|--------------12------12--11--12--11------11------------------------------------------------------
D|--------------------------------------14------14--12--14--12--11--12--11------11------------------
A|--------------------------------------------------------------------------14------14--13--14--13--
E|--------------------------------------------------------------------------------------------------

Stave 7:

E|---------------------------------------------------------------------------------------------
B|---------------------------------------------------------------------------------------------
G|---------------------------------------------------------------------------------------------
D|---------------------------------------------------------------------------------------------
A|--10--13--10--9--10--9------9----------------------------------------------------------------
E|------------------------12-----12--10--12--10--9--10--9--7--9--7--6--7--6--3--6--3--2--3--2--

Stave 8:

E|---------------------------------------------------------------------------------------------------
B|--12--11-------------------------------------------------------------------------------------------
G|----------12--11-----------------------------------------------------------------------------------
D|------------------14--12--11-----------------------------------------------------------------------
A|------------------------------14--13--10--9---------------------------------------------9--10--13--
E|---------------------------------------------12--10--9--7--6--3--2--3--6--7--9--10--12-------------

Stave 9:

E|------------------------------------------12--14--15--18--19--18--------------------------------------
B|--------------------------11--12--14--15--------------------------20--19--17--------------------------
G|------------------11--12------------------------------------------------------19--18--16--15----------
D|------11--12--14------------------------------------------------------------------------------17--16--
A|--14--------------------------------------------------------------------------------------------------
E|------------------------------------------------------------------------------------------------------

Stave 10:

E|------------------------------
B|------------------------------
G|------------------------------
D|--14--------------------------
A|------17--16--14--13----------
E|----------------------14--13--

http://www.guitartabcreator.com
Guitar Tab Creator is intended to store guitar tab created through the tool. It currently does not support in-line text editing. Any text you place in here will be lost. If you need to comment on your tab, please use the "Tab Notes" section located below.